Cky - Deceit Is Striking Gold Chords & Tabs

 

Deceit Is Striking Gold Chords & Tabs

Cky Chords & Tabs

Version: 1 Type: Tab 0 ratings
1 star 2 stars 3 stars 4 stars 5 stars
comments

Deceit Is Striking Gold Tab

   
-------------------------------------------------------------------------------
			     Deceit is Striking Gold - CKY
-------------------------------------------------------------------------------
Tabbed by:  kima
Email:

Tuning: DGCFAD

D|--------------------------------------------------------------------------------!
A|--------------------------------------------------------------------------------!
F|--------------------------------------------------------------------------------!
C|--------------------------------9-----8-----7------------7/---------------------!
G|--------------------------------7-----6-----5---------3---------5---------------!
D|-5-5--6-6--7-7--8-8--9--10---0-----0-----0-----0--/5---------0-----7--5--3--0---!
[ Tab from: http://www.guitartabs.cc/tabs/c/cky/deceit_is_striking_gold_tab.html ]
D|--------------------------------------!-----------------------------------------!
A|--------------------------------------!-----------------------------------------!
F|--------------------------------------!-----------------------------------------!
C|----/7--6-----2--4-----2--4-----------!-----------------------------------------!
G|-----------4--------4--------4--2-----!-----------------------------------------!
D|-2---------------------------------2--!-----------------------------------------!

D|--------------------------------------------------------------------------------|
A|--------------------------------------------------------------------------------|
F|--------------------------------------------------------------------------------|
C|--------------------------------------------------------------------------------|
G|---4-----------2--5-2--2-2----2----------------------0--2--4--------------------|
D|-2---2--2-2-2--------------0---0--0-0---0--2--5--2------------------------------|

D|--------------------------------------------------------------------------------|
A|--------------------------------------------------------------------------------|
F|----/5--7-----------------------------------------------------------------------|
C|---------------5--7-----5--7--------------/7--6------2--4-----2--4--------------|
G|-0----------7--------7--------7--5----------------4--------4--------2--4----0---|
D|---------------------------------------2----------------------------------------|

| /  slide up
| \  slide down
| h  hammer-on
| p  pull-off
| ~  vibrato
| +  harmonic
| x  Mute note
===============================================================================
Comments