Cky - Close Yet Far Chords & Tabs

 

Close Yet Far Chords & Tabs

Cky Chords & Tabs

Version: 2 Type: Tab 2 ratings
1 star 2 stars 3 stars 4 stars 5 stars
comments

Close Yet Far Tab

   
#----------------------------------PLEASE NOTE--------------------------------#
#This file is the author's own work and represents their interpretation of the#
#song. You may only use this file for private study, scholarship, or research.#
#-----------------------------------------------------------------------------#
#-- File created with Instab - http://www.pconline.com/~smcarey/instab.html --#
#-----------------------------------------------------------------------------#

Author/Artist: CKY
Title: Close Yet Far
Album: Infiltrate Destroy Rebuild
Transcribed by: Greg Kong
Tuning: Eb Ab Db Gb Bb Eb



This is a great song, and I'm pretty sure this is correct....



Intro/Verse/Outro
-|-----------------------------------|-
-|-----------------------------------|-
-|------------------3-4-4/6-4-3------|-
-|--4-------6-------------------4----|-
-|----4---4---4-------------------4--|-
-|------6-------4-1------------------|-

[ Tab from: http://www.guitartabs.cc/tabs/c/cky/close_yet_far_tab_ver_2.html ]
-|-----------------------------------|-
-|--3--------------------------------|-
-|------------------3-4-4/6-4-3------|-
-|----4---4-6-------------------4----|-
-|------4-----4-------------------4--|-
-|--------------4-1------------------|-


Chorus
-|------------|---------------------------|-
-|------------|---------------------------|-
-|------------|----------3-4-4/6-4-3------|-
-|------------|--8--6--3-------------4----|-
-|------------|--6--4--3---------------4--|-
-|--12/--12/--|--6--4--1------------------|-


Outro
-|-----------------|-
-|-----------------|-
-|--3---------4-4--|-
-|----6-4---3------|-
-|--------4--------|-
-|-----------------|-


This part is the hollow synth sounding part thats played throuout the entire song.
-|---------------------------------------------------------------------|-
-|--11-9-/14\11--11h14-/16-14/16-14\11--11h14-/16-14\16-14\11--11-9-7--|-
-|---------------------------------------------------------------------|-
-|---------------------------------------------------------------------|-
-|---------------------------------------------------------------------|-
-|---------------------------------------------------------------------|-


Intro  4x
Verse  8x
Chorus 4x
Outro  1x
Verse  8X
Chorus 4x
Outro  2x
Verse  7x
Outro  3x
Comments