Cky - Cky Volume 2 Chords & Tabs

 

Cky Volume 2 Chords & Tabs

Cky Chords & Tabs

Version: 1 Type: Tab 0 ratings
1 star 2 stars 3 stars 4 stars 5 stars
comments

Cky Volume 2 Tab

Cky
Camp Kill Yourself

Tabbed by: Donald Lawson

All songs by:Deron Miller. Chad Ginsburg, Jess Margera
Vocals: Deron Miller 
Guitars: Deron Miller and Chad Ginsburg
Drums: Jess Margera

 cKy sound: D'addario strings 10's
Metal Master or Danelectro Black Liccorice Foot Pedal
Marshal or Peavey Amp.


Ps. Theres 2 versions of this CD.



=====Santa's Coming=======
Tuning: half step down Eb

intro:
1|------------------------------------------|
2|------------------------------------------|
3|-7-----7--7-9-7-----7-----7-9-7-----------|
4|-7--7--7--------9---7--7--------9-7-5-----|
5|-5--7--5------------5--7--------------7---|
6|----5------------------5------------------|

Pre-Verse
1|----------------------------------------------------------------|
2|----------------------------------------------------------------|
3|-----------------7-7--------------------------------------------|
4|-----7-7--7--7-9----------7-7--7--9-7-5-5---4-7---4---5---------|
5|-5-9------------------5-9-----------------------5---7------4----|
6|----------------------------------------------------------------|

Verse
1|---------------------------------------------|
2|---------------------------------------------|
3|------------------7-7------------------------|
4|-----7-7--7--7-9------------7-7--7--9-7-5-5--|
5|-5-9-------------------5-9-------------------|
6|---------------------------------------------|

Chorus- I'm gonna kill you
1|--------------------------------|
2|--------------------------------|
3|--------------------------------|
4|-7-------------0-0-0-0-0-0-0-0--|
5|-5--5-5--7--6--0-0-0-0-0-0-0-0--|
6|-5--5-5--7--6-------------------|

New Verse- He knows when your sleeping
1|-----------------------------------------------------------------|
2|-------------------------------------7---------------------------|
3|-7-9-7-6-7--------7-9-7-6-7--------9---9-8-9-6-6-6--6-7-9-7-6----|
4|-----------9-9-9------------9-9-9-----------------------------9-7|
5|-----------------------------------------------------------------|
6|-----------------------------------------------------------------|



=======Shippensburg=======
Tuning: Standard
Main/Intro
1|----------------------------------|
2|----------------------------------|
3|----------------------------------|
4|--------------7-5-------------2---|
5|-5-5-7-8--------------5---3-3---3-|
6|---------6-6------3-3---3---------|

Verse:
1|----------------------------------------|
2|----------------------------------------|
3|----------------------------------------|
4|-7-7------7-7-------7-7-------7-7-------|
5|-5-5--5-5-5-5--5-5--5-5--5-5--5-5--5-5--|
6|------3-3------3-3-------3-3-------3-3--|

Verse pt2
1|-------------------------|
2|-------------------------|
3|-------------------------|
4|-3--5--3--5--3--5--3--5--|
5|-3--5--3--5--3--5--3--5--|
6|-1--3--1--3--1--3--1--3--|

Chorus:
1|-----------------------------------------------|
2|-----------------------------------------------|
3|--4--7--5--------------------------------------|
4|--4--7--5--------------------------------------|
5|--2--5--3--------------------------------------|
6|--------------1-3-1--1-3-1-3--1-3-1-3--1-3-1-3-|

Cont...
1|---------------------------------------------------|
2|---------------------------------------------------|
3|--4--7--5------------------------------------------|
4|--4--7--5------------------------------------------|
5|--2--5--3--2X's------------------------------------|
6|------------------1-3-1--1-3-1-3--1-3-1-3--1-3-1-3-|


Solo: The Cry Baby time now...Make sure overdrive on amp is on..
1|--------------------------------------|
2|--------------------------------------|
3|-11-11-10-10-8-8-10-10-11-11-13-13-8--|
4|--------------------------------------|
5|--------------------------------------|
6|--------------------------------------|

Bridge: Guitar1
1|------------------------------------|
2|------------------------------------|
3|------------------------------------|
4|-0-0-0-0----------------------------|
5|---------1-1-1-1-----------3-3-3-3--|
6|------------------3-3-3-3-----------|

Bridge Guitar2:
1|-------------------------------------|
2|-------------------------------------|
3|-------------------------------------|
4|-7-7-7-7--------------------5-5-5-5--|
5|-5-5-5-8--8-8-8-8--5-5-5-5--3-3-3-3--|
6|----------6-6-6-6--3-3-3-3-----------|




========Genesis 12A=========
Tuning:Standard
Main Riff
1|--------------------------------------------------------------|
2|--------------------------------------------------------------|
3|--------------------------------------------------------------|
4|--------------------------------------------------------------|
5|-----------7/8\7/8------------------------5/6\5/6-------------|
6|-----5--5------------2X's-----------3--3-------------2X's-----|
[ Tab from: http://www.guitartabs.cc/tabs/c/cky/cky_volume_2_tab.html ]
Riff 2
1|---------------------------------------------------|
2|---------------------------------------------------|
3|---------------------------------------------------|
4|----------7---5-------3---2-------7---5------------|
5|----------------3---3------------------------3-2---|
6|-5-5-3-5----3-----5-----5---5-3-5---3----5-5-----3-|

Riff3 pt1
1|-------------------------------------------------------------------------|
2|-------------------------------------------------------------------------|
3|-------------------------------------------------------------------------|
4|-------------------------------------------------------------------------|
5|-----------------------3---3---3------5------------------3---3---3------5|
6|------5---5---5---5------------------------5---5---5---------------------|

Riff 3 pt2
1|-----------------------------------------------------------------------|
2|-----------------------------------------------------------------------|
3|-----------------------------------------------------------------------|
4|-----------------------------------------------------------------------|
5|-------------------3---3---3------5-------------------3---3---3------5-|
6|--3---3---3---3------------------------3---3---3-----------------------|

Riff 3 pt3
1|----------------------------------------------------------------------|
2|----------------------------------------------------------------------|
3|----------------------------------------------------------------------|
4|----------------------------------------------------------------------|
5|-------------------3---3---3------5------------------3---3---3------5-|
6|--5---5---5---5------------------------5---5---5----------------------|

Riff 3 pt4
1|--------------------------------------------------------------------------
2|--------------------------------------------------------------------------
3|--------------------------------------------------------------------------
4|--------------------------------------------------------------------------
5|-----------------------3---3---3------5------------5---7-----5----3-------
6|------3---3---3---3------------------------3---3--------------------------

Riff4
1|-----------------------------------------------------------------------|
2|-----------------------------------------------------------------------|
3|--------------------------------------------------------4---------6----|
4|-----------------------6---6---6------8--------------------------------|
5|-----------------------------------------------------------------------|
6|-----4---4---4---4--------------------------0---0---0------0---0-------|

Riff4 end
1|--------------------------------------------------------------------------
2|--------------------------------------------------------------------------
3|--------------------------------------------------------------------------
4|-----------------------6---6---6------8------------------5---5---5-----6--
5|----4---4---4---4--------------------------6---6---6----------------------
6|--------------------------------------------------------------------------




=======Fat Fuck=====
Tuning:Drop D
Intro/Verse:Repeat 18X's
1|----------------------------------------------|
2|----------------------------------------------|
3|----------------------------------------------|
4|----------------------------------------------|
5|---5---0---5-4h2p0-2----2-2-------------------|
6|----------------------0-----------------------|

Chorus:Repeat 4 X's
1|-------------------------------------|
2|-------------------------------------|
3|-------------------------------------|
4|-------------------2-0---------------|
5|--2---2---2----0-2-------------------|
6|---234-234-234-----------------------|

Outro: 
1|------------------------------------------|
2|------------------------------------------|
3|---------4---------------4----------------|
4|--0------4---------0-----4----------------|
5|--0------2---------0-----2---------5p0----|
6|--0----------------0----------------------|
  16 X's  all till                   this



======Chinese Freestyle======
I'll come back to tab



======Drunken freestyle======
I'll come back to tab




=======Shitty Christmas======
Tuning:standard
Riff1
1|-------------------------------------------------------------------|
2|-------------------------------------------------------------------|
3|-------------------------------------------------------------------|
4|-5-10-10--12-6-9-7-7--7-12-12-14-12-10-5-5--9--14-14-15-14-12-10-10|
5|-5-10-10--12-6-9-7-7--7-12-12-14-12-10-5-5--9--14-14-15-14-12-10-10|
6|-3-8--8---10-8-7-5-5--5-10-10-12-10-8--7-7--7--12-12-13-12-10-8--8-|

1|-----------------------------------------------------------|
2|-----------------------------------------------------------|
3|-----------------------------------------------------------|
4|-5--12----9------10----------------------------------------|
5|-5--12----9------10----------------------------------------|
6|-3--10----7------8-----------------------------------------|
 a boreing new year...

Well another Done.. look for Infiltrate Destroy Rebuild tab next
Comments and Questions AIM: Misfits3388
Comments