Cky - Cky Volume 1 Chords & Tabs

 

Cky Volume 1 Chords & Tabs

Cky Chords & Tabs

Version: 1 Type: Bass Tab 0 ratings
1 star 2 stars 3 stars 4 stars 5 stars
comments

Cky Volume 1 Bass Tab

   
Band: Cky
Album: Volume 1
TheMutts (halo2k@forerunners.org)

Note: I would like to thanks to authors for these tabs. NOTE: I (TheMutts)
do not take credit at all for these tabs. I simply compiled the most accurate
tabs and put this album together so you can find all the songs in here.

Tracks
1. 96 Quite Bitter Beings
2. Rio Bravo
3. Disengage the Simulator
4. Human Drive in Hi-Fi
5. Lost in a Contraption
6. Knee Deep
7. My Promiscuous Daughter
8. Sara's Mask
9. To All of You

////////////////////////////////////////////////////////////////////////////

1. 96 Quite Bitter Beings

Intro
G------------------------------------------------------------|
D--------------------------------2---------------------------|
A------2----------2-3-2--------3----/5--3---2-0----/2--------|
E--0-3---0---0-3--------3-2-0-------------------3------3-----|

verse
G----------------------------------------------------------------|
D----------------------------------------------------------------|
A----------4-4-4-----------------55555555------------------------|
E--0-0-0--0--------------00000000--------------------------------|

Breakdown
G------------------------------------------------------|
D--------5----------------5----------------------------|
A--5-5-5---5-7-7-7--3-3-3---5-7-7-7--------------------|
E------------------------------------------------------|


2. Rio Bravo

Intro
DROP D

G:-------------------------------------------|
D:-7-6-5----------3--------------------------|
A:-------5--3-4-5---7-6-5--------------------|
D:------------------------7-5-6-7--7-6-5-3-0-|  X2

G:--------------------------------------------------|
D:-7-6-5----------3---------------------------------|
A:-------5--3-4-5---7-6-5--------------------------3|
D:------------------------7-5-6-7--7-6-5-3-0-3-4-5--|X1

G:-------------------|
D:-------------------|
A:-----------------3-|
D:-7-6-5-3-0-3-4-5---| X2


3. Disengage the Simulator

Verse
G----------------------|
D----------------------|
A---------------7----6-| (x2)
E-00000-00---00---00---|

G-----------------------------|
D-----------------------------|
A-777777-555555-333333-555555-|
E-----------------------------|

Chorus
G---------------------------------|
D---------------------------------|
A-0--7-0-760-7976-0--5*---4*---3*-|
E---------------------------------|

(* = let ring)

After chorus:

G-------------|
D-------------|
A-------------|
E-0000-----00-|

Order:
Main Riff x4
Chorus x4
After Chorus x1
Main Riff x4
Chorus x4
After Chorus x2
Main riff x2

Ending:

G----------------------------- ----|
D-----------------------------  \\-|
A-777777-555555-333333-555555-  ---|
E-----------------------------  ---|
                                 |--x till the song fades out.
G-----------------------------  ---|
D-----------------------------  ---|
A-333333-555555-333333-555555------|  /
E----------------------------- ----|


4. Human Drive in Hi-Fi

I N T R O
|----------------------------------------------------------------------|
|----------------------------------------------------------------------|
|----------------------------------------------------------------------|
|-3-3-3-3-3-3-3-3-3-3-3-3-3-3-3-3-3-3-3-3-3-3-3-3-3-3-3-3-3-3-3-3-3-3--|

V E R S E
|----------------------------------------------|
|----------------------------------------------|
|----------------------------------------------|
|-2--2-0-2-0-2-0-2--2-0-2-0-2-0-2--2-0-2-0-2---|
"Cant deny it, all my life ..."

C H O R U S
|----------------------------------------------|
|----------------------------------------------|
|----------------------------------------------|
|--3-3-3-3-3---6-6--3-1--0-0-0-0---9-7-5-2-----|
"People stop and stare ..."


|----------------------------------------------|
|----------------------------------------------|
|----------------------------------------------|
|--3-3-3-3-3---6-6--7-9---9-7-9-7-6-2----------|


B R I D G E
|-------------------------------------------------------------------------------|
|-------------------------------------------------------------------------------|
|-------------------------------------------------------------------------------|
|-3-3-3-3-3-3-3-3-3-3-3-2-2-2-2-2-2-2-2-2-2-3-3-3-3-3-3-3-3-3-3-2-2-2-2-2-2-2---|

5. Lost in a Contraption

START:
G- - - - - - - - - - - - - - - - - - - - - - - - - - - -
D- - - - - - - - - - - - - - - - - - - - - - - - - - - - -
A-- - - - - - - - - - - - - - - - - - - - - - - - - - - -
D-2-2-2-2-2-2-2-2-2-2-2-2-2-2-2-2-2-2-2-2-2-2-2-2-2-2-2-2-2
VERSE 1
G- - - - - - - - - - - - - - - - - - - - - - - - - - - - - - -
D-- - - - - - - - - - - - - - - - - - - - - - - - - - - - - -
A- - - - - - - - - - - - - - - - - - - - - - - - - - - - - - - -
D-2-5-4-3-4-5-4-3-2-5-4-3-4-5-4-3-2-5-4-3-4-5-4-3-2-5-4-3-4-5-4-3
BACK TO START

CHORUS:
G- - - - - - - - - - - - - - - - -
D-- - - - - - - - - - - - - - - - -
A- - - - - - - - - - - - - - - - - -
D-0-2- - - 0-2- - - 0-2 - - - 0-2 - - -

THEN BACK TO VERSE 1**
START:
G- - - - - - - - - - - - - - - - - - - - - - - - - - - -
D- - - - - - - - - - - - - - - - - - - - - - - - - - - - -
A-- - - - - - - - - - - - - - - - - - - - - - - - - - - -
D-2-2-2-2-2-2-2-2-2-2-2-2-2-2-2-2-2-2-2-2-2-2-2-2-2-2-2-2-2
[ Tab from: http://www.guitartabs.cc/tabs/c/cky/cky_volume_1_btab.html ]
THEN TO CHORUS !
AFTER
VERSE 1
G- - - - - - - - - - - - - - - - - - - - - - - - - - - - - - -
D-- - - - - - - - - - - - - - - - - - - - - - - - - - - - - -
A- - - - - - - - - - - - - - - - - - - - - - - - - - - - - - - -
D-2-5-4-3-4-5-4-3-2-5-4-3-4-5-4-3-2-5-4-3-4-5-4-3-2-5-4-3-4-5-4-3

VERSE 2

G- - - - - -4- - - - - - - - 4
D- - - - - -4-2-0- - - - - - - 4-2-0
A-2-5-4-0-2- - - - 2-5-4-0-2
D- - - - - - - - -- - - - - - - - -- - - YOU GET THE POINT JUST DO THIS UNTIL THEY GO TO THE CHORUS


CHORUS:
G- - - - - - - - - - - - - - - - -
D-- - - - - - - - - - - - - - - - -
A- - - - - - - - - - - - - - - - - -
D-0-2- - - 0-2- - - 0-2 - - - 0-2 - - -  THEN


G- - - - - - - - - - - - - - - - - - -
D- - - - - - - - - - - - - - - - - - - - -
A- - - - - - - - - - - - - - - - - - - - -
D-2-5-4-3-4-5-4-3 fiNISH


6. Knee Deep

Tuning: one step down (F,C,G,D)

Intro
F|------------------------|
C|------------------------|
G|------------------------|
D|-5-5-5-5--7--3-3-3-3--5-|


Verse(if ur not in sync with the guitar you ruin the song)
F|----------------------|
C|----------------------|
G|----------------------|
D|-1-----5-----3------1-|

Bridge
F|-----------------------------------------------------|
C|-----------------------------------------------------|
G|--6-8---4-6-8-6-10-8-6--------------6-8-6-10-8-6-4-0-|
D|2-----2----------------5-4-2-4-2--0------------------|

7. My Promiscuous Daughter

Verse:
G|------------------|
D|------------------|
A|--5-5---8-8--8-8--|
E|------------------|

G|-----------------------|
D|-----------------------|
A|-55555555--88888888----|
E|-----------------------|

Pre-Solo:
G|------------------|
D|------------------|
A|-----------3------|
E|-0-0000000--------|

Bass Solo:
G|----------------------------------|
D|---7-7--5-5--3-5--3-5-5--3-5------|
A|-5----------------------------5---|
E|----------------------------------|

After Solo:
G|---7-4-2------------------|
D|--------------------------|
A|-5-------5--8-10-10--5h---|
E|--------------------------|

8. Sara's Mask

Verse
|---------------------------------|
|---------------------------------|
|---------------------------------|
|--2-5--7-----7-------7-\2---2----|

Chorus
|--------------------|
|--------------------|
|---7---2-5-2---10---|
|--------------------|
"And is it your face ....."

|---------------------------------------------------------------|
|---------------------------------------------------------------|
|--0-0--2-5-2-0---7-5-----------------------0-0--2-3-2-0--4-2---|
|---------------------------------------------------------------|
		"............so take my hand..."

|------------------------------------------------------------------------|
|------------------------------------------------------------------------|
|--2----------2--------0-0-0-0-0-0-0-2--2--------2--------0-0-0-0-0-0----|
|------------------------------------------------------------------------|



9. To All of You

Verse

G|-------------------------------------------------------|
D|-------------------------------------------------------|
A|-4-44-44-44-44-44-44-44-4------------------------------|
E|-------------------------4-44-44-44-44-44-44-44-4------|

G|-------------------------------------------------------|
D|-6-66-66-66-66-66-66-66-64-44-44-44-44-44-44-44--------|
A|-------------------------------------------------------|
E|-------------------------------------------------------|

G|-------------------------------------------------------|
D|-------------------------------------------------------|
A|-------------------------------------------------------|
E|-2-22-22-22-22-22-22-22-24-44-44-44-44-44-44-44-4------|

G|-------------------------------------------------------|
D|-------------------------------------------------------|
A|-------------------------------------------------------|
E|-5-55-55-55-55-55-55-55-57-77-77-77-77-77-77-77-7------|

Chorus

G|-------------------------------------------------------|
D|-------------------------------------------------------|
A|-------------------------------------------------------|
E|-5-55-55-55-55-55-55-55-54-44-44-44-44-44-44-44-4------|

G|-------------------6-66-6------------------------------|
D|------------------6------------------------------------|
A|-4-44-44-44-44-44--------------------------------------|
E|-------------------------7-77-77-77-77-77-77-77-7------|

After Chorus

G|-------------------------------------------------------|
D|-6-66-66-66-66-66-66-66-64-44-44-44-44-44-44-44-4------|
A|-------------------------------------------------------|
E|-------------------------------------------------------|

G|-------------------------------------------------------|
D|-2-22-22-22-22-22-22-22-24-44-44-44-44-44-44-44-4------|
A|-------------------------------------------------------|
E|-------------------------------------------------------|

Play:

Verse x1
Chorus x1
After Chorus x1
Verse x1
Chorus x2
After Chorus x1
Verse x5

Then:

G|------------------------------------------------------------|
D|------------------------------------------------------------|
A|-4-44-44-44-44-44-44-44-4-----------------------------------|
E|-------------------------4-44-44-44-44-44-44-44-45~~~~~~~~~~| Let the final A ring


The End...
Comments