Cky - Behind The Screams Chords & Tabs

 

Behind The Screams Chords & Tabs

Cky Chords & Tabs

Version: 1 Type: Tab 0 ratings
1 star 2 stars 3 stars 4 stars 5 stars
comments

Behind The Screams Tab

   
-------------------------------------------------------------------------------
			     BEHIND THE SCREAMS - CKY
-------------------------------------------------------------------------------


e|---3-----------5-----10----------10/12--8------------8/10----7----|
B|---------------------------8------------------8-------------------|
G|---------0--------0-----------0------------------0----------------|
D|---2--------2--2--------------------------------------------------|
A|----------------------7-----------------7--------------------6----|
E|------------------------------------------------------------------|

e|---5p3--3p2--2------------2h3p2-----2----3---------2-----3--|
B|--------------------3------------3-------------3------3-----|
G|------------------------------------------------------------|
D|---0-----------(0)----(0)-----------------------------------|
A|---------------------------------3-----2----2--2------------|
E|------------------------------------------------------------|

e|---3---0---5----3-----0----5----5-----0----7----12--|
B|-----5---5---5-----5-----5---5-----5-----5---5------|
G|-------------------------------------------------9--|
D|---2------------0-----0---------3-----3-------------|
A|----------------------------------------------------|
E|----------------------------------------------------|

e|-10\(7)-7-----10-----/12---7------7-----------------------------|
B|-10\(8)-8-----10-----/12---8----8----10---8----10----/12--------|
G|------------------------------9---------------------------7-----|
D|----------------------------------------------------------0-----|
A|----------------------------------------------------------------|
E|--0--------0------0------0------------8------8----8-------7-----|
[ Tab from: http://www.guitartabs.cc/tabs/c/cky/behind_the_screams_tab.html ]
e|--3----0---5-----3-----0----5----5-----0-----7-----12------|
B|-----5---5---5------5-----5---5-----5-----5-----5----------|
G|----------------------------------------------------9------|
D|--2--------------0-----0-----------------------------------|
A|---------------------------------3-----3-------------------|
E|----------------------------------------------------8------|

e|---7--5--5\3--3\---3--2------5--0--2----3---------2---3--|
B|---8--7--7\5--5\--------3----7----------------3-----3----|
G|-------------------------------------------4-------------|
D|---------------------------------------------------------|
A|-------------------0------0-----3-----3-------2----------|
E|---0-----------------------------------------------------|

e|-------------------------------------2----------2h3p2--0---|
B|---7-------7h8p7--5-----3----5-----------------------------|
G|--------------------------------(0)------------------------|
D|-------------------------------------0-------0-------------|
A|-------------------------------------------------------3---|
E|---0-----0-----------0-----0-------------------------------|

e|--10\(7)--7---10----/12-----7------7------------------------------|
B|--10\(8)--8---10----/12-----8----8------10--8----10-----/12-------|
G|-------------------------------9-----------------------------7----|
D|-------------------------------------------------------------0----|
A|------------------------------------------------------------------|
E|---0--------0----0-------0--------------8------8----8--------7----|

e|---3----0---5-----3-----0----5----5-----0----7-----12---|
B|------5---5---5------5-----5---5-----5-----5---5--------|
G|----------------------------------------------------9---|
D|---2--------------0-----0-------------------------------|
A|----------------------------------3-----3---------------|
E|----------------------------------------------------8---|

e|--------2----3---------2----3------/5--3-----2------0---|
B|---3------------0---3----------3----------------0-------|
G|--------------------------------------------------------|
D|------------------------------------0-----0--1----------|
A|---3-------2--------2-----3-----------------------------|
E|----------------------------------------------------0---|


| /  slide up
| \  slide down
| h  hammer-on
| p  pull-off
| ~  vibrato
| +  harmonic
| x  Mute note
===============================================================================
Comments