Cky - Attached At The Hip Chords & Tabs

 

Attached At The Hip Chords & Tabs

Cky Chords & Tabs

Version: 7 Type: Tab 0 ratings
1 star 2 stars 3 stars 4 stars 5 stars
comments

Attached At The Hip Tab

Tabbed by------- $2 Dollar Food Stamp
Email-----------halo2k@forerunners.org

Band------------CKy
Song------------Attached at the Hip
Album-----------Infiltrate Destroy Rebuild
Record Label----Island Records

Tuning----------1/2 Step Low

Key
/ - Slide
b - bend
r - release
. - pm

Note: I've seen some tabs of this song and played them, and they didn't sound quite
right so this should be more precise than most other tabs...
===========================
Intro (0:00 - 0:14)
[----------------------------------------------]
[----------------------------------------------]
[-5-----------------------5--------------------]
[-5--------------3--------5--------------------]4x
[-3(x8)------------6-3-6--3(x8)-------0-6-6-3--]
[--------3-6-3-6----------------3-6-3----------]

Verse (0:16 - 0:30)
[-------------------]
[-------------------]
[--5-5--5-5-5-5-----]
[--5-5--5-5-5-5-----]
[--3-3--3-3-3-3(x4)-]
[-------------------]
 ...................
[--------------------------------------------------]
[--------------------------------------------------]
[--------------------------------------------------]
[---8888888888-8888888888----8888888888-8888888888-]
[---6666666666-6666666666----6666666666-6666666666-]
[------------------------9-7-----------------------]
 ...............................................

Main Riff (0:31 - 0:45)
[----------------------------------------------]
[----------------------------------------------]
[-5-----------------------5--------------------]
[-5--------------3--------5--------------------]
[-3(x8)------------6-3-6--3(x8)-------0-6-6-3--]
[--------3-6-3-6----------------3-6-3----------]
[ Tab from: http://www.guitartabs.cc/tabs/c/cky/attached_at_the_hip_tab_ver_7.html ]
Verse (0:45 - 0:59)
[-------------------]
[-------------------]
[--5-5--5-5-5-5-----]
[--5-5--5-5-5-5-----]
[--3-3--3-3-3-3(x4)-]
[-------------------]
 ...................
[--------------------------------------------------]
[--------------------------------------------------]
[--------------------------------------------------]
[---8888888888-8888888888----8888888888-8888888888-]
[---6666666666-6666666666----6666666666-6666666666-]
[------------------------9-7-----------------------]
 ...............................................

Chorus (1:00 - 1:30)
[----------------------------][----------------------------------]
[----------------------------][----------------------------------]
[-555-888----------8888-7777-][--------888-----121212--8888-7777-]
[-555-888-888-555--8888-7777-][-101010-888-888-121212--8888-7777-]
[-333-666-888-555--6666-5555-][-101010-666-888-101010--6666-5555-]
[---------666-333------------][-888888-----666-------------------]
           (4x)                                 (4x) 

Main Riff (1:30 - 1:44)
[----------------------------------------------]
[----------------------------------------------]
[-5-----------------------5--------------------]
[-5--------------3--------5--------------------]
[-3(x8)------------6-3-6--3(x8)-------0-6-6-3--]
[--------3-6-3-6----------------3-6-3----------]

Verse (1:44 - 1:50)
[-------------------]
[-------------------]
[--5-5--5-5-5-5-----]
[--5-5--5-5-5-5-----]Play just this one this verse
[--3-3--3-3-3-3(x4)-]
[-------------------]
 ...................

Chorus (2:06 - 2:36)
[----------------------------][----------------------------------]
[----------------------------][----------------------------------]
[-555-888----------8888-7777-][--------888-----121212--8888-7777-]
[-555-888-888-555--8888-7777-][-101010-888-888-121212--8888-7777-]
[-333-666-888-555--6666-5555-][-101010-666-888-101010--6666-5555-]
[---------666-333------------][-888888-----666-------------------]
           (4x)                              (4x)

Main Riff (2:37 - 2:51)
[----------------------------------------------]
[----------------------------------------------]
[-5-----------------------5--------------------]
[-5--------------3--------5--------------------]4x
[-3(x8)------------6-3-6--3(x8)-------0-6-6-3--]
[--------3-6-3-6----------------3-6-3----------]


And thats the whole song. Hope you like it, thats my second song ever tabbed.
My email is halo2k@forerunners.org if you have a suggestion or comment.
Comments