Cky - Attached At The Hip Chords & Tabs

 

Attached At The Hip Chords & Tabs

Cky Chords & Tabs

Version: 6 Type: Tab 0 ratings
1 star 2 stars 3 stars 4 stars 5 stars
comments

Attached At The Hip Tab

   
Artist - cky
Song - Attached At The Hip
Tuning - Half Step Down {Eb,Ab,Db,Gb,Bb,Eb}
Tabbed by - HeavyMetalMan

x = palm mute
b = bend (0b2 - bend the open string to soudn tliek the second fret)

INTRO
Eb:------------------------------------------------------------------------|
Bb:------------------------------------------------------------------------|
Gb:------------------------------------------------------------------------|
Db:-4-4-4-4-4-4----------2---------4-4-4-4-4-4-----------2-2---------------|
Ab:-2-2-2-2-2-2------------5-------2-2-2-2-2-2---------------5-5-----------|
Eb:--------------2-5-2-5-----2-5-----------------2-5-2-5-------------------|

Eb:--------------------------------------------------------------------------|
Bb:--------------------------------------------------------------------------|
Gb:--------------------------------------------------------------------------|
Db:-4-4-4-4-4-4----------2---------4-4-4-4-4-4-----------2-2-----------------|
Ab:-2-2-2-2-2-2------------5-------2-2-2-2-2-2---------------5-5-------------|
Eb:--------------2-5-2-5-----2-5-----------------2-5-2-5-------------0b2-----|

MAIN RIFF
Eb:------------------------------------------------------------------------|
Bb:------------------------------------------------------------------------|
Gb:------------------------------------------------------------------------|
Db:-4-4-4-4-4-4----------2---------4-4-4-4-4-4-----------2-2---------------|
Ab:-2-2-2-2-2-2------------5-------2-2-2-2-2-2---------------5-5-----------|
Eb:--------------2-5-2-5-----2-5-----------------2-5-2-5-------------------|

Eb:-------------------------------------------------------------------------|
Bb:-------------------------------------------------------------------------|
Gb:-------------------------------------------------------------------------|
Db:-4-4-4-4-4-4----------2---------4-4-4-4-4-4-----------2-2----------------|
Ab:-2-2-2-2-2-2------------5-------2-2-2-2-2-2---------------5-5------------|
Eb:--------------2-5-2-5-----2-5-----------------2-5-2-5--------------------|


VERSE
Eb:------------------------------------------------------------------------|
Bb:------------------------------------------------------------------------|
Gb:------------------------------------------------------------------------|
Db:-2-2--2-2-2-2--2-2--2-2-2-2--2-2--2-2-2-2--2-2--2-2-2-2-----------------|
Ab:-2-2--2-2-2-2--2-2--2-2-2-2--2-2--2-2-2-2--2-2--2-2-2-2-----------------|
Eb:------------------------------------------------------------------------|
    x x  x x x x  x x  x x x x  x x  x x x x  x x  x x x x

[ Tab from: http://www.guitartabs.cc/tabs/c/cky/attached_at_the_hip_tab_ver_6.html ]
 (play this part as quickly as possiply with a little gap where i put --)
Eb:--------------------------------------------------------------|
Bb:--------------------------------------------------------------|
Gb:--------------------------------------------------------------|
Db:--------------------------------------------------------------|
Ab:-2-2-2-2-2-2-2-2-2-2--2-2-2-2-2-2-2-2-2-2-2-2-2-2-2-2-2-2-2-2-|
Eb:--------------------------------------------------------------|
    x x x x x x x x x x  x x x x x x x x x x x x x x x x x x x x

Eb:------------------------------------------|
Bb:------------------------------------------|
Gb:------------------------------------------|
Db:------------------------------------------|
Ab:-2-2-2-2-2-2-2-2-2-2--2-2-2-2-2-2-2-2-2-2-|
Eb:------------------------------------------|
    x x x x x x x x x x  x x x x x x x x x x


CHORUS
------------------------------------------------------------------------------|
------------------------------------------------------------------------------|
--4------7------2-------------7--6--------------------------------------------|
--4------7------2------4------7--6--------------------------------------------|
---2------5------0------4------5--4-------------------------------------------|
-----------------------2------------------------------------------------------|

------------------------------------------------------------------------------|
------------------------------------------------------------------------------|
--4------7------2-------------7--6--------------------------------------------|
--4------7------2------4------7--6--------------------------------------------|
---2------5------0------4------5--4-------------------------------------------|
-----------------------2------------------------------------------------------|

------------------------------------------------------------------------------|
------------------------------------------------------------------------------|
--4------7------2-------------7--6--------------------------------------------|
--4------7------2------4------7--6--------------------------------------------|
---2------5------0------4------5--4-------------------------------------------|
-----------------------2------------------------------------------------------|

------------------------------------------------------------------------------|
------------------------------------------------------------------------------|
--4------7------2-------------7--6--------------------------------------------|
--4------7------2------4------7--6--------------------------------------------|
---2------5------0------4------5--4-------------------------------------------|
-----------------------2------------------------------------------------------|

BRIDGE
Eb:------------------------------------------------------------------------|
Bb:------------------------------------------------------------------------|
Gb:------------------------------------------------------------------------|
Db:-2-2--2-2-2-2--2-2--2-2-2-2--2-2--2-2-2-2--2-2--2-2-2-2-----------------|
Ab:-2-2--2-2-2-2--2-2--2-2-2-2--2-2--2-2-2-2--2-2--2-2-2-2-----------------|
Eb:------------------------------------------------------------------------|
    x x  x x x x  x x  x x x x  x x  x x x x  x x  x x x x


INTRO
VERSE
MAIN RIFF
VERSE
CHORUS
MAIN RIFF
BRIDGE
CHORUS
INTRO
Comments