Cky - Attached At The Hip Chords & Tabs

 

Attached At The Hip Chords & Tabs

Cky Chords & Tabs

Version: 5 Type: Tab 0 ratings
1 star 2 stars 3 stars 4 stars 5 stars
comments

Attached At The Hip Tab

Ok i have worked this out on my own, and i think it sounds very much like it, i have 
it so that you dont have to down tune your guitar.
email what you think of this tab isa_lads@hotmail.

Intro and verse
e|---------------------------------------------------------------------------|
B|---------------------------------------------------------------------------|
G|-4-4-4-4-----------------4-4-4-4-------------------------------------------|
D|-4-4-4-4-----------------4-4-4-4-------------------------------------------|
A|-2-2-2-2---------5-2-----2-2-2-2---------5-2-------------------------------|
E|---------2-5-2-5-----2-5---------2-5-2-5-----------------------------------|

[ Tab from: http://www.guitartabs.cc/tabs/c/cky/attached_at_the_hip_tab_ver_5.html ]
e|---------------------------------------------------------------------------|
B|---------------------------------------------------------------------------|
G|-4-4-4-4-----------------4-4-4-4-------------------------------------------|
D|-4-4-4-4-----------------4-4-4-4-------------------------------------------|
A|-2-2-2-2---------5-2-----2-2-2-2---------5----2----------------------------|
E|---------2-5-2-5-----2-5---------2-5-2-5-----------------------------------|

Bridge
e|---------------------------------------------------------------------------|
B|---------------------------------------------------------------------------|
G|-44-44-44-44-4444-4444-4444-4444-------------------------------------------|
D|-44-44-44-44-4444-4444-4444-4444-------------------------------------------|
A|-22-22-22-22-2222-2222-2222-2222-------------------------------------------|
E|---------------------------------------------------------------------------|

chours
e|---------------------------------------------------------------------------|
B|---------------------------------------------------------------------------|
G|-44-77------76-------------------------------------------------------------|
D|-44-77-22-5-76-------------------------------------------------------------|
A|-22-55-22-5-54-------------------------------------------------------------|
E|-------00-3----------------------------------------------------------------|

So there ya have it, worked out be yours
truely,Jays the name please e-mail me your comments on this song which i have kindly 
for you,
Comments