Cky - Attached At The Hip Chords & Tabs

 

Attached At The Hip Chords & Tabs

Cky Chords & Tabs

Version: 4 Type: Tab 0 ratings
1 star 2 stars 3 stars 4 stars 5 stars
comments

Attached At The Hip Tab

"Attached at the Hip" by Camp Kill Yourself
Tabbed by: The Apocalyzard
UltimateGuitar.com
Email: JRocket859@msn.com

Tuning: DGCFAD (A Full-Step Down, the same as all songs from Infiltrate. Destroy. Rebuild.)

Note: Bloody hell, this tab is incorrect. I wanna kill myself, now.

INTRO / CHORUS Riff (Guitar I)
e|---------------------------------------------------------------------------|
B|---------------------------------------------------------------------------|
G|-4---------------------4---------------------------------------------------|
D|-4------------2-----/2-4----------2-------/2-------------------------------|
A|-2-x8-----------5-0----2-x8---------5-5-0----------------------------------|
E|------2-5-2-5---------------2-5-2------------------------------------------|
Play twice, alongside Guitar II.
There's some wah in the riff. I think it may start at the beginning but, if not,
it starts after playing the powerchords each time.

INTRO / CHORUS Riff (Guitar II)
e|---------------------------------------------------------------------------|
B|---------------------------------------------------------------------------|
G|----------------9-------/9-------------9----------/9-----------------------|
D|-9----------------12-------9-------------12-12-----------------------------|
A|-9----9-12-9-12------12----9----9-12-9---------12--------------------------|
E|-7-x8----------------------7-x8--------------------------------------------|
Play twice, alongside Guitar I.
[ Tab from: http://www.guitartabs.cc/tabs/c/cky/attached_at_the_hip_tab_ver_4.html ]
  FILL  VERSE Riff (Guitar I)  VERSE Riff (Guitar II)
                               Starts after Guitar I plays the VERSE Riff x4.
e|----|----------------------|-----------------------------------------------|
B|----|----------------------|-----------------------------------------------|
G|----|-4-4--4-4-4-4---------|-----------------------------------------------|
D|-3--|-4-4--4-4-4-4---------|-----------------------------------------------|
A|-3--|-2-2--2-2-2-2-x8------|-555555555-4-2-555555555-4-0-4-----------------|
E|-1--|----------------------|-------------------------------x2--------------|
PM      - -  - - - -           ---------     ---------

Play CHORUS Riff
Play VERSE Riff

BRIDGE Riff (Guitar I)
e|---------------------------------------------------------------------------|
B|---------------------------------------------------------------------------|
G|-4----7--------------7-----------------------------------------------------|
D|-4----7----5----4----7-----------------------------------------------------|
A|-2-x4-5-x3-5----4----5-x3--------------------------------------------------|
E|-----------3-x3-2-x4-------------------------------------------------------|
Play four times, alongside Guitar II.

BRIDGE Riff (Guitar II)
e|---------------------------------------------------------------------------|
B|---------------------------------------------------------------------------|
G|---------------------------------------------------------------------------|
D|-9----12----12--/14--12-11-------------------------------------------------|
A|-9----12-------------------------------------------------------------------|
E|-7-x4-10-x3-10--/12--10-9--------------------------------------------------|
Play four times, alongside Guitar I.

Play CHORUS Riff.
Play VERSE Riff, but only the beginning. The rest of it is bass.
Play BRIDGE Riff.
Play CHORUS Riff.

And that's it.
Comments