Cky - Attached At The Hip Chords & Tabs

 

Attached At The Hip Chords & Tabs

Cky Chords & Tabs

Version: 2 Type: Tab 0 ratings
1 star 2 stars 3 stars 4 stars 5 stars
comments

Attached At The Hip Tab

Play the chorus like 4 time....just listen the song the know the rythme of the song.

Chorus
1|---------------------------------------------------|
2|---------------------------------------------------|
3|---------------------------------------------------|
4|-7-7-7---9-9-9---3-3-3--2-2-2-----9-9-9-9--8-8-8-8-|
5|-7-7-7---9-9-9---3-3-3--2-2-2-----9-9-9-9--8-8-8-8-|
6|-5-5-5---7-7-7---1-1-1--0-0-0-----7-7-7-7--6-6-6-6-|
[ Tab from: http://www.guitartabs.cc/tabs/c/cky/attached_at_the_hip_tab_ver_2.html ]
1|---------------------------------------------------|
2|---------------------------------------------------|
3|---------------------------------------------------|
4|-7-7-7---9-9-9---3-3-3--2-2-2-----9-9-9-9--8-8-8-8-|
5|-7-7-7---9-9-9---3-3-3--2-2-2-----9-9-9-9--8-8-8-8-|
6|-5-5-5---7-7-7---1-1-1--0-0-0-----7-7-7-7--6-6-6-6-|

1|---------------------------------------------------|
2|---------------------------------------------------|
3|---------------------------------------------------|
4|-7-7-7---9-9-9---3-3-3--2-2-2-----9-9-9-9--8-8-8-8-|
5|-7-7-7---9-9-9---3-3-3--2-2-2-----9-9-9-9--8-8-8-8-|
6|-5-5-5---7-7-7---1-1-1--0-0-0-----7-7-7-7--6-6-6-6-|

1|---------------------------------------------------|
2|---------------------------------------------------|
3|---------------------------------------------------|
4|-7-7-7---9-9-9---3-3-3--2-2-2-----9-9-9-9--8-8-8-8-|
5|-7-7-7---9-9-9---3-3-3--2-2-2-----9-9-9-9--8-8-8-8-|
6|-5-5-5---7-7-7---1-1-1--0-0-0-----7-7-7-7--6-6-6-6-|
Comments