Cky - Attached At The Hip Chords & Tabs

 

Attached At The Hip Chords & Tabs

Cky Chords & Tabs

Version: 1 Type: Bass Tab 0 ratings
1 star 2 stars 3 stars 4 stars 5 stars
comments

Attached At The Hip Bass Tab

Cky
Attached At The Hip

Intro

G| --------------------------------------------------------------------|
D| -------------------------1--------------------------------1---------|
A| -1-1-1-1-1-1-1-1-----------4---4--1-1-1-1-1-1-1-1-----------4---4---|
E| -----------------1-4-1-4-----4--------------------1-4-1-4-----4-----|

G| --------------------------------------------------------------------|
D| -------------------------1--------------------------------1---------|
A| -1-1-1-1-1-1-1-1-----------4---4--1-1-1-1-1-1-1-1-----------4---4---|
E| -----------------1-4-1-4-----4--------------------1-4-1-4-----4-----|


Verse

G| ---------INcrease speed of playing after the bar------------|-------|
D| ------------------------------------------------------------|-------|
A| -1-1--1-1-1-1---1-1--1-1-1-1---1-1--1-1-1-1---1-1--1-1-1-1--|-1-1-1-|
E| ------------------------------------------------------------|-------|

G| ---------------------------------------------------------------------|
D| ---------------------------------------------------------------------|
A| -1-1-1-1-1-1-1-1--1---1-1-1-1-1-1-1-1-1-1-1--1---1-1-1-1-1-1-1-1-1-1-|
E| ---------------------------------------------------------------------|

G| --------------------------------------------------------------------|
D| --------------------------------------------------------------------|
A| -1--1---1-1-1-1-1-1-1-1-1-1-1--1------------------------------------|
E| --------------------------------------------------------------------|


Pre-Chorus

G| --------------------------------------------------------------------|
D| -------------------------1--------------------------------1---------|
A| -1-1-1-1-1-1-1-1-----------4---4--1-1-1-1-1-1-1-1-----------4---4---|
E| -----------------1-4-1-4-----4--------------------1-4-1-4-----4-----|

G| --------------------------------------------------------------------|
D| -------------------------1--------------------------------1---------|
A| -1-1-1-1-1-1-1-1-----------4---4--1-1-1-1-1-1-1-1-----------4---4---|
E| -----------------1-4-1-4-----4--------------------1-4-1-4-----4-----|


Verse

G| -------INcrease speed of playing again after the bar-----------------|
D| ------------------------------------------------------------|--------|
A| -1-1--1-1-1-1---1-1--1-1-1-1---1-1--1-1-1-1---1-1--1-1-1-1--|-1-1-1--|
E| ------------------------------------------------------------|--------|

G| ---------------------------------------------------------------------|
D| ---------------------------------------------------------------------|
A| -1-1-1-1-1-1-1-1--1---1-1-1-1-1-1-1-1-1-1-1--1---1-1-1-1-1-1-1-1-1-1-|
E| ---------------------------------------------------------------------|

G| ---------------------------------|
D| ---------------------------------|
A| -1--1---1-1-1-1-1-1-1-1-1-1-1--1-|
E| ---------------------------------|


Chorus

G| --------------------------------------------------------------------|
D| --------------------------------------------------------------------|
A| -1~------4~------------------4~------------1~------4~---------------|
E| ---------------2~----4~------------4~--------------------2~----4~---|
[ Tab from: http://www.guitartabs.cc/tabs/c/cky/attached_at_the_hip_btab.html ]
G| ---------------------------------------------------------------------|
D| ---------------------------------------------------------------------|
A| --4~------------1~------4~------------------4~------------1~------4~-|
E| --------4~--------------------2~----4~------------4~-----------------|

G| ----------------------------|
D| ----------------------------|
A| ------------------4~--------|
E| ----2~----4~------------4~--|

Pre-Chorus

G| --------------------------------------------------------------------|
D| -------------------------1--------------------------------1---------|
A| -1-1-1-1-1-1-1-1-----------4---4--1-1-1-1-1-1-1-1-----------4---4---|
E| -----------------1-4-1-4-----4--------------------1-4-1-4-----4-----|

G| --------------------------------------------------------------------|
D| -------------------------1--------------------------------1---------|
A| -1-1-1-1-1-1-1-1-----------4---4--1-1-1-1-1-1-1-1-----------4---4---|
E| -----------------1-4-1-4-----4--------------------1-4-1-4-----4-----|


Bridge

G| ---------------------------------------------------------------------|
D| ---------------------------------------------------------------------|
A| -1-1---1-1-1-1----1--1---1-1-1-1----1--1---1-1-1-1----1--1---1-1-1-1-|
E| ---------------------------------------------------------------------|

G| ---------------------------------------------------------------------|
D| ---------------------------------------------------------------------|
A| -1-1---1-1-1-1----1--1---1-1-1-1----1--1---1-1-1-1----1--1---1-1-1-1-|
E| ---------------------------------------------------------------------|

G| ---------------------------------------------------------------------|
D| ---------------------------------------------------------------------|
A| -1-1---1-1-1-1----1--1---1-1-1-1----1--1---1-1-1-1----1--1---1-1-1-1-|
E| ---------------------------------------------------------------------|


Chorus

G| --------------------------------------------------------------------|
D| --------------------------------------------------------------------|
A| -1~------4~------------------4~------------1~------4~---------------|
E| ---------------2~----4~------------4~--------------------2~----4~---|

G| ---------------------------------------------------------------------|
D| ---------------------------------------------------------------------|
A| --4~------------1~------4~------------------4~------------1~------4~-|
E| --------4~--------------------2~----4~------------4~-----------------|

G| ----------------------------|
D| ----------------------------|
A| ------------------4~--------|
E| ----2~----4~------------4~--|


End Riff

G| --------------------------------------------------------------------|
D| -------------------------1--------------------------------1---------|
A| -1-1-1-1-1-1-1-1-----------4---4--1-1-1-1-1-1-1-1-----------4---4---|
E| -----------------1-4-1-4-----4--------------------1-4-1-4-----4-----|

G| --------------------------------------------------------------------|
D| -------------------------1--------------------------------1---------|
A| -1-1-1-1-1-1-1-1-----------4---4--1-1-1-1-1-1-1-1-----------4---4---|
E| -----------------1-4-1-4-----4--------------------1-4-1-4-----4-----|


Written and tabbed by me Bob. Thanks
Comments