Cky - As The Tables Turn Chords & Tabs

 

As The Tables Turn Chords & Tabs

Cky Chords & Tabs

Version: 3 Type: Tab 0 ratings
1 star 2 stars 3 stars 4 stars 5 stars
comments

As The Tables Turn Tab

   
                               AS THE TABLES TURN
                               As recorded by CKY
                  (From the 2005 Album AN ANSWER CAN BE FOUND)
   Verse
    Q=115
    $
    N.C.            D#m         N.C.  D#m         N.C.
   4/4
    Gtr I
    S S S S S S S S S S S S S S S S   S S S S S S S S S S S S S S S S
||----------------------------------|----------------------------------||
||o---------------------------------|---------------------------------o||
||----------------------------------|----------------------------------||
||------------------4-4-4-4-4-4-----|-4-4-4-4-4-4---------3-3----------||
||o-------------4-4-6-6-6-6-6-6-4-4-|-6-6-6-6-6-6-4-4-6-6-------------o||
||--6-6-6-6-6-6---------------------|-------------------------4-4-5-5--||
|
|   Gtr II
|   S S S S S S S S S S S S S S S S   S S S S S S S S S S S S S S S S
||----------------------------------|----------------------------------||
||o---------------------------------|---------------------------------o||
||----------------------------------|----------------------------------||
||----------------------------------|---------------------3-3----------||
||o---------------------------------|-------------4-4-6-6-------------o||
||--6-6-6-6-6-6-5-5-4-4-4-4-4-4-3-3-|-2-2-2-2-2-2-------------4-4-5-5--||


                  D#m         N.C.  D#m         N.C.
  S S S S S S S S S S S S S S S S   S S S S S S S S S S S S S S S S
|---------------------------------|---------------------------------|
|---------------------------------|---------------------------------|
|---------------------------------|---------------------------------|
|-----------------4-4-4-4-4-4-----|-4-4-4-4-4-4---------3-3---------|
|-------------4-4-6-6-6-6-6-6-4-4-|-6-6-6-6-6-6-4-4-6-6-------------|
|-6-6-6-6-6-6---------------------|-------------------------4-4-5-5-|
|
| S S S S S S S S S S S S S S S S   S S S S S S S S S S S S S S S S
|---------------------------------|---------------------------------|
|---------------------------------|-----------------4-4-6-6---------|
|---------------------------------|-------------6-6-----------------|
|---------------------------------|-------------------------6-6-7-7-|
|---------------------------------|---------------------------------|
|-6-6-6-6-6-6-5-5-4-4-4-4-4-4-3-3-|-2-2-2-2-2-2---------------------|


                  D#m         N.C.  D#m         N.C.
  S S S S S S S S S S S S S S S S   S S S S S S S S S S S S S S S S
|---------------------------------|---------------------------------|
|---------------------------------|---------------------------------|
|---------------------------------|---------------------------------|
|-----------------4-4-4-4-4-4-----|-4-4-4-4-4-4---------3-3-4-4-3-3-|
|-------------4-4-6-6-6-6-6-6-4-4-|-6-6-6-6-6-6-4-4-6-6-------------|
|-6-6-6-6-6-6---------------------|---------------------------------|
|
| S S S S S S S S S S S S S S S S   S S S S S S S S S S S S S S S S
|---------------------------------|---------------------------------|
|---------------------------------|-----------------4-4-6-6-7-7-6-6-|
|---------------------------------|-------------6-6-----------------|
|---------------------------------|---------------------------------|
|---------------------------------|---------------------------------|
|-6-6-6-6-6-6-5-5-4-4-4-4-4-4-3-3-|-2-2-2-2-2-2---------------------|


    N.C.
    S S S S S S S S S S S S S S S S   S S S S S S S S S S S S S S S S
||----------------------------------|-----------------------------------||
||o---------------------------------|----------------------------------o||
||----------------------------------|-----------------------------------||
||----------------------------------|-----4-4---------4-4-----3-3-3-3---||
||o-----4-4-6-6-----4-4-6-6-----4-4-|-6-6-----6-6-4-4-----6-6----------o||
||--6-6---------6-6---------6-6-----|-----------------------------------||
|
|   S S S S S S S S S S S S S S S S   S S S S S S S S S S S S S S S S
||----------------------------------|-----------------------------------||
||o---------------------------------|-----7-7---------7-7-----6-6-6-6--o||
||------6-6-8-8-----6-6-8-8-----6-6-|-8-8-----8-8-6-6-----8-8-----------||
||--8-8---------8-8---------8-8-----|-----------------------------------||
||o---------------------------------|----------------------------------o||
||----------------------------------|-----------------------------------||


   Pre-Chorus
                                                                  D.C.
                                                                  D.C.
    N.C.
    S S S S S S S S S S S S S S S S   S S S S S S S S S S S S S S S S   4x
||----------------------------------|-----------------------------------||
||o---------------------------------|----------------------------------o||
||----------------------------------|-----------------------------------||
||----------------------------------|-----4-4---------4-4-----3-3-3-3---||
||o-----4-4-6-6-----4-4-6-6-----4-4-|-6-6-----6-6-4-4-----6-6----------o||
||--6-6---------6-6---------6-6-----|-----------------------------------||
|
|   S S S S S S S S S S S S S S S S   S S S S S S S S S S S S S S S S   4x
||----------------------------------|-----------------------------------||
||o---------------------------------|-----7-7---------7-7-----6-6-6-6--o||
||------6-6-8-8-----6-6-8-8-----6-6-|-8-8-----8-8-6-6-----8-8-----------||
||--8-8---------8-8---------8-8-----|-----------------------------------||
||o---------------------------------|----------------------------------o||
||----------------------------------|-----------------------------------||


   Chorus
    N.C.
          PM      PM      PM      PM|
    E E E E S S E E E   E E S S E E E S S E
||--------------------|---------------------|
||o-------------------|---------------------|
||----------6-6-------|-----6-6-------5-5---|
||----6-8-------6---6-|-8-------6---6-----6-|
||o-------------------|---8-------8---------|
||--6-----6-------6---|---------------------|


                              D.S. al Coda
  PM    PM      PM      PM      PM|
  E E E E S S E E E   E E S S E E E S S S  S  4x
|-------------------|-------------------------||
|-------------------|------------------------o||
|---------6-6-------|-----8-8-----6-8-8-8-10--||
|---6-8-------6---6-|-8-------8---------------||
|-9-----9-------9---|---9-------9------------o||
|-------------------|-------------------------||


 Guitar Solo
  &
  N.C.
  Gtr III
    Q.                S  +S      Q.             S  +S
|---------------------------------------------------------|
|---------------------------------------------------------|
|-/20----------------20-(20)b21-18-------------18-(18)b19-|
|---------------------------------------------------------|
|---------------------------------------------------------|
|---------------------------------------------------------|
|
| Gtr I
|   S  S  S  S  S  S  S   S      S   S S S S S  S   S
|---------------------------------------------------------|
|---------------------------------------------------------|
|--------------------------------------9-9------9---9-----|
|--------------11-11------------11--11--------------------|
|--------11-11--------------------------------------------|
|---9--9--------------9---9----------------7-7------------|

[ Tab from: http://www.guitartabs.cc/tabs/c/cky/as_the_tables_turn_tab_ver_3.html ]
   Q.               S  +S      Q.               S  +S
|----------------------------------------------------------|
|----------------------------------------------------------|
|-16---------------16-(16)b17-14---------------14-(14)b15--|
|----------------------------------------------------------|
|----------------------------------------------------------|
|----------------------------------------------------------|
|
|  S   S  S  S S S  S   S      S   S S S  S  S  S   S
|----------------------------------------------------------|
|----------------------------------------------------------|
|-11--11-------9-9-11--11------------9-9-11-11--8---8------|
|----------------------------------------------------------|
|--------12-12----------------12--12-----------------------|
|----------------------------------------------------------|


   H                    E     S  S  E    E
|----------------------16----------16---15b16====|
|------------------------------------------------|
|-13-------------------------13-13---------------|
|------------------------------------------------|
|------------------------------------------------|
|------------------------------------------------|
|
|  S S  S  S  S  S S S  S  S  S  S  S S  S     S
|------------------------------------------------|
|------------------------------------------------|
|-----------------------------9--9-------9-----9-|
|------------11-11-----11-11---------------------|
|------11-11-------------------------------------|
|--9-9-------------9-9--------------7-7----------|


   +H.                                E..        T
|-(15)r--------------------------------------------|
|--------------------------------------------------|
|--------------------------------------------------|
|--------------------------------------------------|
|--------------------------------------------------|
|------------------------------------21s=========9-|
|
|   S    S  S  S S S  S  S  S  S S S  S    S S S
|--------------------------------------------------|
|--------------------------------------------------|
|--11---11-------9-9-11-11-------9-9-11---11-8-8---|
|--------------------------------------------------|
|----------12-12-----------12-12-------------------|
|--------------------------------------------------|


   Q.                S  +S       Q.             S  +S
|-16----------------16-(16)b17--14-------------14-(14)b15-|
|---------------------------------------------------------|
|---------------------------------------------------------|
|---------------------------------------------------------|
|---------------------------------------------------------|
|---------------------------------------------------------|
|
| Gtr II
|  Q.                E           Q.             E
|---------------------------------------------------------|
|---------------------------------------------------------|
|-13----------------14---------/16-------------14---------|
|---------------------------------------------------------|
|---------------------------------------------------------|
|---------------------------------------------------------|
|
| Gtr I
|  S  S  S  S  S  S  S   S       S   S S S S S  S   S
|---------------------------------------------------------|
|---------------------------------------------------------|
|--------------------------------------9-9------9---9-----|
|-------------11-11-------------11--11--------------------|
|-------11-11---------------------------------------------|
|--9--9--------------9---9-----------------7-7------------|


   Q.               S  +S      Q.               S  +S
|-12---------------12-(12)b13-11---------------11-(11)b12--|
|----------------------------------------------------------|
|----------------------------------------------------------|
|----------------------------------------------------------|
|----------------------------------------------------------|
|----------------------------------------------------------|
|
|  Q.               E          Q.               E
|----------------------------------------------------------|
|----------------------------------------------------------|
|-13---------------11---------11---------------11----------|
|----------------------------------------------------------|
|----------------------------------------------------------|
|----------------------------------------------------------|
|
|  S   S  S  S S S  S   S      S   S S S  S  S  S   S
|----------------------------------------------------------|
|----------------------------------------------------------|
|-11--11-------9-9-11--11------------9-9-11-11--8---8------|
|----------------------------------------------------------|
|--------12-12----------------12--12-----------------------|
|----------------------------------------------------------|


    H..                                  +E
|---9------------------------------------(9)s==|
|----------------------------------------------|
|----------------------------------------------|
|----------------------------------------------|
|----------------------------------------------|
|----------------------------------------------|
|
|   H..                                  +E
|----------------------------------------------|
|----------------------------------------------|
|-/13-----------------------------------(13)s==|
|----------------------------------------------|
|----------------------------------------------|
|----------------------------------------------|
|
|   S   S  S  S  S  S S S  S  S S S S S   S  S
|----------------------------------------------|
|----------------------------------------------|
|-------------------------------9-9-------9--9-|
|---------------11-11-----11-11----------------|
|---------11-11--------------------------------|
|---9---9-------------9-9-----------7-7--------|


   W
|-21-----------------------------------------||
|--------------------------------------------||
|--------------------------------------------||
|--------------------------------------------||
|--------------------------------------------||
|--------------------------------------------||
|
|  W
|--------------------------------------------||
|--------------------------------------------||
|-18-----------------------------------------||
|--------------------------------------------||
|--------------------------------------------||
|--------------------------------------------||
|
|  S  S  S  S S S  S  S  S  S S S  S  S S S
|--------------------------------------------||
|--------------------------------------------||
|-11-11-------9-9-11-11-------9-9-11-11-8-8--||
|--------------------------------------------||
|-------12-12-----------12-12----------------||
|--------------------------------------------||


   Outro
    N.C.
          PM      PM      PM      PM|
    E E E E S S E E E   E E S S E E E S S E
||--------------------|---------------------|
||o-------------------|---------------------|
||----------6-6-------|-----6-6-------5-5---|
||----6-8-------6---6-|-8-------6---6-----6-|
||o-------------------|---8-------8---------|
||--6-----6-------6---|---------------------|


  PM    PM      PM      PM      PM|
  E E E E S S E E E   E E S S E E E S S S  S  8x
|-------------------|-------------------------||
|-------------------|------------------------o||
|---------6-6-------|-----8-8-----6-8-8-8-10--||
|---6-8-------6---6-|-8-------8---------------||
|-9-----9-------9---|---9-------9------------o||
|-------------------|-------------------------||


  A#5
             \2.5__________________
  H..       +E       +H     H
|------------------|-------------*|
|------------------|-------------*|
|------------------|-------------*|
|------------------|-------------*|
|-8----------------|-------------*|
|-6---------(6)----|-(6)---------*|
Comments