Cky - As The Tables Turn Chords & Tabs

 

As The Tables Turn Chords & Tabs

Cky Chords & Tabs

Version: 2 Type: Tab 0 ratings
1 star 2 stars 3 stars 4 stars 5 stars
comments

As The Tables Turn Tab

   
Verse Riff:
D|-------------------------------------|
A|-------------------------------------|
F|-------------------------------------|
C|-------------------------------------|
G|-------44-66666644-66666666-66666688-|
D|-666666------------------------------|

Pre-Chorus Riff: 
D|-------------------------------------------------|
A|-------------------------------------------------|
F|-------------------------------------------------|
C|-------------------------------------------------|
G|----44-66----44-66----44----99-66----99-66----88-|
D|-66-------66-------66----66-------66-------66----|
[ Tab from: http://www.guitartabs.cc/tabs/c/cky/as_the_tables_turn_tab_ver_2.html ]
Chorus Riff:
D|------------------|-------------------|------------------|----------------------|
A|------------------|-------------------|------------------|----------------------|
F|---------66-------|-----66-------55---|---------66-------|-----88-----6-88-8/10-|
C|-----8------6---6-|---8----6---6----6-|-----8------6---6-|---8----6-8-----------|
G|---8---8------8---|-6--------8--------|---8---8------8---|-6--------------------|
D|-6----------------|-------------------|-6----------------|----------------------|

Solo:
D|---------------------------------------16-(16)-(16)-|
A|-16-16/18\14-14/16\12-12/14\10-10/12\9--------------|
F|----------------------------------------------------|
C|----------------------------------------------------|
G|----------------------------------------------------|
D|----------------------------------------------------|

D|-16-16/18\14-14/16\12-12/14\11-11/12\9-/21v-|
A|--------------------------------------------|
F|--------------------------------------------|
C|--------------------------------------------|
G|--------------------------------------------|
D|--------------------------------------------|

End on:
D|---||
A|---||
F|---||
C|---||
G|-8-||
D|-6-||
Comments