Cky - All Power To Slaves Chords & Tabs

 

All Power To Slaves Chords & Tabs

Cky Chords & Tabs

Version: 6 Type: Tab

All Power To Slaves Tab

   
~CKY~
"All Power to Slaves"
An Answer Can Be Found
Tabbed by: LDscholar
Email: ldscholar36@netscape.net
Tuning: Down One Whole Step 
***REQUIRES A 24-FRET GUITAR***
This tab is definitely more correct than the others, but I donít think itís perfect.
ENJOY!

. . . = Palm Muting
b(#) = Bend (to pitch)
r = Release
h\t = Hammer-On\Tapping
p = Pull-Off
/ = Slide Up
\ = Slide Down
~ = Vibrato
(#) = Optional\Ghost Note

*HEAVY DISTORTION & LIBERAL PALM MUTING*


                                                                              {x2}
D|-------------------------------------------------------------------------------|
A|-------------------------------------------------------------------------------|
F|---------------------------4-3------------------------------------3-4----6---8-|
C|------------6---------4-6-------4---6--------------6---------4-6------66---6---|
G|---6-4----------(4)---------------6-------6-4----------(4)---------------------|
D|-4-----5--4---4--2----------------------4-----5--4---4--2----------------------|

                                                 {x2}
D|--------------------------------------------------|
A|-----------------------------11-------------------|
F|---------/13-11-----------------13-11-13-11----11-|
C|-11--11---------13-11-11/13-----------------13----|
G|--------------------------------------------------|
D|--------------------------------------------------|

D|------------------------------------------------|
A|---------------------------11-------------------|
F|-------/13-11-----------------13-11-13-11----11-|
C|-9--9---------13-11-11/13-----------------13----|
G|------------------------------------------------|
D|------------------------------------------------|

D|--------------------------------------------------|
A|-----------------------------11-------------------|
F|---------/13-11-----------------13-11-13-11----11-|
C|-11--11---------13-11-11/13-----------------13----|
G|--------------------------------------------------|
D|--------------------------------------------------|

-->The verse riff is the same as the intro played slightly softer<--


                                         LEAD INTO CHORUS-->
D|--------------------------------------------------|
A|--------------------------------------------------|
F|--------------------------------------------------|
C|-6-6-6-6-8-8------8--6--4--6--4--2----------------|
G|-4-4-4-4-6-6--/9--6--4--2--4--2--0--6--2--2-------|
D|------------------------------------4--0--4-------|


~GUITAR 1 (RHYTHM)
D|---------------------------------|
A|---------------------------------|
F|---------------------------------|
C|-2--2--2--2--2--2--2--2--2--2--2-|
G|-2--2--2--2--2--2--2--2--2--2--2-|
D|-0--0--0--0--0--0--0--0--0--0--0-|

D|--------------------------------------------|
A|--------------------------------------------|
F|--------------------------------------------|
C|-6-6-6-6-8-8------8--6--4--6--4--2----------|
G|-4-4-4-4-6-6--/9--6--4--2--4--2--0--6--2--2-|
D|------------------------------------4--0--4-|

D|---------------------------------|
A|---------------------------------|
F|---------------------------------|
C|-2--2--2--2--2--2--2--2--2--2--2-|
G|-2--2--2--2--2--2--2--2--2--2--2-|
D|-0--0--0--0--0--0--0--0--0--0--0-|
[ Tab from: http://www.guitartabs.cc/tabs/c/cky/all_power_to_slaves_tab_ver_6.html ]
D|--------------------------------------------|
A|--------------------------------------------|
F|--------------------------------------------|
C|-6-6-6-6-8-8------8--6--4--6--4--2----------|
G|-4-4-4-4-6-6--/9--6--4--2--4--2--0--6--2--2-|
D|------------------------------------4--0--4-|

D|---------------------------------|
A|---------------------------------|
F|---------------------------------|
C|-2--2--2--2--2--2--2--2--2--2--2-|
G|-2--2--2--2--2--2--2--2--2--2--2-|
D|-0--0--0--0--0--0--0--0--0--0--0-|

D|--------------------------------------------|
A|--------------------------------------------|
F|--------------------------------------------|
C|-6-6-6-6-8-8------8--6--4--6--4--2----------|
G|-4-4-4-4-6-6--/9--6--4--2--4--2--0--6--2--2-|
D|------------------------------------4--0--4-|

D|---------------------------------------------------|
A|---------------------------------------------------|
F|---------------------------------------------------|
C|-2--2--2--2--2--2--2--2--2--2--2-------------------|
G|-2--2--2--2--2--2--2--2--2--2--2---8--6--4--6--6/8-|
D|-0--0--0--0--0--0--0--0--0--0--0---6--4--2--4--4/6-|

~GUITAR 2 (LEAD) -->HEAVY FLANGE OR PHASE W/ DISTORTION

>PLAYED DURING D5 POWER CHORDS<                  {x4}
D|--------------------------------------------------|
A|--------------------------------------------------|
F|-------------6p4h6---8p6h8--6--4------------------|
C|-4--6--6/9------------------------6p4/6-----------|
G|--------------------------------------------------|
D|--------------------------------------------------|




D|--------------|
A|----------9~--| <--LET RING
F|--------------|
C|-6~-----------|
G|--------------|
D|--------------|

D|-------(14)/16--15b16--15b16--------|
A|-/(16)------------------------------|
F|-------------------------------/13\-|
C|------------------------------------|
G|------------------------------------|
D|------------------------------------|

>VERY FAST<
D|-t22p15t18p15-t22p15t18p15-t22p15t18p15-t23p15t18p15-t22p15t18p15-t22p15t18p15-|
A|-------------------------------------------------------------------------------|
F|-------------------------------------------------------------------------------|
C|-------------------------------------------------------------------------------|
G|-------------------------------------------------------------------------------|
D|-------------------------------------------------------------------------------|

                                         V-[PICKED IN MULTIPLES EXTREMELY FAST]-V
D|----------/12-----11-----/12-----11-----/16--18--19-18-19-21-19-21-23~~--------|
A|-/16~~~-------14-----12------14-----12-----------------------------------------|
F|-------------------------------------------------------------------------------|
C|-------------------------------------------------------------------------------|
G|-------------------------------------------------------------------------------|
D|-------------------------------------------------------------------------------|
(END SOLO)

-->PLAY THROUGH CHORUS RIFF ONCE<--



D|---------|
A|---------|
F|---------|
C|-6\\\\---|
G|-6\\\\---|
D|-4\\\\---|

Well, thatís it! I was unable to exact the number of picks each note at the end of the
solo gets, so I leave that up to you. ;)