Cky - All Power To Slaves Chords & Tabs

 

All Power To Slaves Chords & Tabs

Cky Chords & Tabs

Version: 4 Type: Tab 0 ratings
1 star 2 stars 3 stars 4 stars 5 stars
comments

All Power To Slaves Tab

   
Artist/Band: Cky-All Power To Slaves
Album: An Answer Can Be Found Track 5
Tuning:One step down- DGCFAD
Effects:Octave,Delay

*  -  Any important notations
~  -  Vibrato


Opening/Main Riff
d-------------------------------------|
a-------------------------------------|
f---------------------------4-3-------|
c-------------6---------4-6-----4---4-|
g----6--4-2-----------------------6---|
D--4--------4----4--2-----------------|

d------------------------------------------|
a------------------------------------------|
f-------------------------4-3-----6-----8--|
c-------------6--------4-6-----4-4---4-4---|
g----6--4-2--------------------------------|
D--4--------4----4--2----------------------|

d-------------------------------------|
a-------------------------------------|
f---------------------------4-3-------|
c-------------6---------4-6-----4---4-|
g----6--4-2-----------------------6---|
D--4--------4----4--2-----------------|

d------------------------------------------|
a------------------------------------------|
f-------------------------4-3-----6-----8--|
c-------------6--------4-6-----4-4---4-4---|
g----6--4-2--------------------------------|
D--4--------4----4--2----------------------|

Riff "B"
d-------------------------------------------|
a-------------------------------------------|
f-------11h-13-11-------15-13-11-13-11---11-|
c-9-9-9-----------11-13----------------13---|
g-------------------------------------------|
D-------------------------------------------|

d---------------------------------------------|
a---------------------------------------------|
f----------11h-13-11------15-13-11-13-11---11-|
c-11-11-11-----------11-13---------------13---|
g---------------------------------------------|
D---------------------------------------------|

d-------------------------------------------|
a-------------------------------------------|
f-------11h-13-11-------15-13-11-13-11---11-|
c-9-9-9-----------11-13----------------13---|
g-------------------------------------------|
D-------------------------------------------|

d---------------------------------------------|
a---------------------------------------------|
f----------11h-13-11------15-13-11-13-11---11-|
c-11-11-11-----------11-13---------------13---|
g---------------------------------------------|
D---------------------------------------------|

Main Riff
d-------------------------------------|
a-------------------------------------|
f---------------------------4-3-------|
c-------------6---------4-6-----4---4-|
g----6--4-2-----------------------6---|
D--4--------4----4--2-----------------|
[ Tab from: http://www.guitartabs.cc/tabs/c/cky/all_power_to_slaves_tab_ver_4.html ]
d------------------------------------------|
a------------------------------------------|
f-------------------------4-3-----6-----8--|  *Repeat Main Riff 2X
c-------------6--------4-6-----4-4---4-4---|
g----6--4-2--------------------------------|
D--4--------4----4--2----------------------|

d-------------------------------------------|
a-------------------------------------------|
f-------11h-13-11-------15-13-11-13-11---11-|
c-9-9-9-----------11-13----------------13---|
g-------------------------------------------|
D-------------------------------------------|

d---------------------------------------------|
a---------------------------------------------|
f----------11h-13-11------15-13-11-13-11---11-|
c-11-11-11-----------11-13---------------13---|
g---------------------------------------------|
D---------------------------------------------|

d-------------------------------------------|
a-------------------------------------------|
f-------11h-13-11-------15-13-11-13-11---11-|
c-9-9-9-----------11-13----------------13---|
g-------------------------------------------|
D-------------------------------------------|

d---------------------------------------------|
a---------------------------------------------|
f----------11h-13-11------15-13-11-13-11---11-|
c-11-11-11-----------11-13---------------13---|
g---------------------------------------------|
D---------------------------------------------|


d----------------------------------------------------|
a----------------------------------------------------|
f----------------------------------------------------|
c----------------------------------------------------|   Repeat 4 more times
g-4-4-4-4-6-6-9-0--6-4-2-4-2-------------------------|
d----------------------------4-2-2-4-0-0-0-0-0-0-0-0-|

Main Riff and Riff "B"


Chad Guitar Solo
d---4~---14b16r14~--|
a-0~----------------|
f-------------------|
c-------------------|
g-------------------|
D-------------------|


d-t19-12h15-t19-12h15-t19-12h15-t19-12h15--t20-12h15--t20-12h15--t19-12h15---|
a-------------------------------------------------------Vibrato this note>12-|b
f----------------------------------------------------------------------------|
c----------------------------------------------------------------------------|
g----------------------------------------------------------------------------|
D----------------------------------------------------------------------------|

d--12/14----11----12/14----11----|
a--------14~---12~------14~---12-|
f--------------------------------|
c--------------------------------|
g--------------------------------|
D--------------------------------|


Tremolo Pick Throughout
d-14-16-18-19-18-19-21-19-21-22^|
a-------------------------------|
f-------------------------------|
c-------------------------------|
g-------------------------------|
D-------------------------------|
*Just listen to the CD and you'll know which notes to tremolo pick.

end on
d------------|
a------------|
f------------|
c------------|
g------------|
d--4\--------|

I hope you love it!
Comments