Cky - All Power To Slaves Chords & Tabs

 

All Power To Slaves Chords & Tabs

Cky Chords & Tabs

Version: 2 Type: Tab 0 ratings
1 star 2 stars 3 stars 4 stars 5 stars
comments

All Power To Slaves Tab

                       All Power To Slaves Tab by CKY

Tabbed By: Floyd93
Email Address: Ram13093@aol.com

Tuning: Whole step down, DGCFAD(low to high)

Intro/Verse:
d|-------------------|
A|-------------------|
F|-------------------|
C|-----------6-------|
G|---6-4-2-----------|
D|-4-------4---2-0---|

d|-----------------|
A|-----------------|
F|-----4-3---------|
C|-4-6-----4---4---|
G|-----------6-----|
D|-----------------|

d|-------------------|
A|-------------------|
F|-------------------|
C|-----------6-------|
G|---6-4-2-----------|
D|-4-------4---4-2---|

d|---------------------|
A|---------------------|
F|-----4-4-----6---6---|
C|-4-6-----4-6---4-----|
G|---------------------|
D|---------------------|

Part comes between the intro and verse(linking riff):
d|-----------------------|
A|-----------------------|
F|-----------------------|
C|-----------------------|
G|-----4---4-6-4-6-4-6---|
D|-2-2---2---------------|

d|-----------------------|
A|-----------------------|
F|-----------------------|
C|-----------------------|
G|-----4---4-2-4-2-4-2---|
D|-2-2---2---------------|
[ Tab from: http://www.guitartabs.cc/tabs/c/cky/all_power_to_slaves_tab_ver_2.html ]
Chorus:
d|------------------------|
A|------------------------|
F|------------------------|
C|----------------4-4-----|
G|------------------------|
D|-11-9-7-9-7-6-2-----0---|

d|-------------------------|
A|-------------------------|
F|-------------------------| Play palm muted
C|-------------------------|
G|-------------------------|
D|-0-0-0-0-0-0-0-0-0-0-0---|

e|---|
B|---|
G|-2-|let ring
D|---|
A|---|
E|---|
                
e|---14^-14-14^-14-14^-t17p12p9t16p12p9t16p12p9t17p12p9t16p12p9t16p12p9|
B|-16------------------------------------------------------------------|
G|---------------------------------------------------------------------|
D|---------------------------------------------------------------------|
A|---------------------------------------------------------------------|
E|---------------------------------------------------------------------|

e|-14----11----14----11-------17-17-20-20-20-20-17-20-20-20-20-22-20-22^|
B|----14----12----14----12-20-------------------------------------------|
G|----------------------------------------------------------------------|
D|----------------------------------------------------------------------|
A|----------------------------------------------------------------------|
E|----------------------------------------------------------------------|

Song Order:
Intro/Verse Riff
Linking Riff
Intro/Verse Riff
Chorus
Intro/Verse Riff
Linking Riff
Intro/Verse Riff
Chorus
Solo
Chorus
Comments