Cky - All Power To Slaves Chords & Tabs

 

All Power To Slaves Chords & Tabs

Cky Chords & Tabs

Version: 1 Type: Tab 0 ratings
1 star 2 stars 3 stars 4 stars 5 stars
comments

All Power To Slaves Tab

---------------------------------------------------------------------------
                              Cky-All Power To Slaves
---------------------------------------------------------------------------

Track 5 on An Awnser Can Be Found

Requiremnents:
DGCFAD
Octave Pedal
[ Tab from: http://www.guitartabs.cc/tabs/c/cky/all_power_to_slaves_tab.html ]
d-------------------------------------|
a-------------------------------------|
f---------------------------4-3-------|
c-------------6---------4-6-----4---4-|
g----6--4-2-----------------------6---|
D--4--------4----4--2-----------------|

d------------------------------------------|
a------------------------------------------|
f-------------------------4-3-----6-----8--|
c-------------6--------4-6-----4-4---4-4---|
g----6--4-2--------------------------------|
D--4--------4----4--2----------------------|
Comments