Cky - 96 Quite Bitter Beings Chords & Tabs

 

96 Quite Bitter Beings Chords & Tabs

Cky Chords & Tabs

Version: 9 Type: Tab 0 ratings
1 star 2 stars 3 stars 4 stars 5 stars
comments

96 Quite Bitter Beings Tab

Artist: cKy
Song:96 Quite bitter beings
Album: Camp Vol 1
Tuning: Standard

Note: you cant just play the song with out pedal effects and get what you want.
People asked me why they cant get cky sound. I perfer a Danelectro Black Licorice
foot pedal. Dont need to spend 90 dollars for some piece of crap that wont work.

Intro:
1|-----------------------------------------------------------|
2|-----------------------------------------------------------|
3|-------2-----------2-3-2--------------5--3--2--0-----2-----|
4|--0--3----0---0--3-------3-2-------3--------------3----3---|
5|------------------------------3-1--------------------------|
6|-----------------------------------------------------------|

Verse:
1|------------------|
2|------------------|
3|------------------|
4|------------------|
5|--7-7-7--7-4-4-4--|
6|--5-5-5 -5-2-2-2--|
[ Tab from: http://www.guitartabs.cc/tabs/c/cky/96_quite_bitter_beings_tab_ver_9.html ]
Chorus:
1|-------------------------------------------------------------|
2|-------------------------------------------------------------|
3|-------2-----------2-3-2----------------5--3--2--0-----2-----|
4|--0--3----0--0--3---------3-2------3----------------3------3-|
5|-------------------------------3-1---------------------------|
6|-------------------------------------------------------------|

Bridge
1|-----------------------|
2|-----------------------|
3|-----------------------|
4|-4-4-4-4-4---5-5-5-5-5-|
5|-5-5-5-5-5---7-7-7-7-7-|
6|-----------------------|

Interlude:
1|-------------------------------------|----------------------------------|
2|-------------------------------------|----------------------------------|
3|-------------------------------------|----------------------------------|
4|--7-7-7--5-0--------5-5-5-5-0--------|-7-7-7-5-0-9-9-9--5-5-5-5-0-9-9-9-|
5|--5-5-5------2-2-2--3-3-3----2-2-2---|-5-5-5-----7-7-7--3-3-3-----7-7-7-|
6|-------------0-0-0-----------0-0-0---|----------------------------------|

Song Form:
intro
verse
chorus
verse
Bridge
Interlude
Bridge
Interlude
Chorus
Comments