Cky - 96 Quite Bitter Beings Chords & Tabs

 

96 Quite Bitter Beings Chords & Tabs

Cky Chords & Tabs

Version: 7 Type: Tab 0 ratings
1 star 2 stars 3 stars 4 stars 5 stars
comments

96 Quite Bitter Beings Tab

CKY: 96 quite bitter beings
tabbed by:punkrockdude88
punkrockdude1988@yahoo.com



Well, here it is in its entirety.

      h - hammer on
      p - pull off
      b - bend string up
      r - release bend
      / - slide up
      \ - slide down
      v - vibrato
      t - tap (with strumming hand)
      X - muted, struck string

Tune down 1/2 step


Main riff
E--------------------------------------------------------------I
B--------------------------------------------------------------I
G---0-4-------------0-4-5-4-0-----------5h7-5---4-2-0----2h4-0-I
D-2---------------2------------4-0----5------------------------I
A----------------------------------3---------------------------I
E------------0-------------------------------------------------I
[ Tab from: http://www.guitartabs.cc/tabs/c/cky/96_quite_bitter_beings_tab_ver_7.html ]
Verse
E---------------------------------------------I
B---------------------------------------------I
G---------------------------------------------I
D------------------------2----2----2----------I
A-2----2----2------------4----4----4----------I
E-0----0----0---------0-----------------------I

Sloppy part-(let ring)
E--0-0-0-0-0-0-0-0-------------I              I-X-I THEN PLAY
B--0-0-0-0-0-0-0-0-------------I PLAY         I-X-I 'SLOPPY PART'
G--4-4-4-4-4-4-4-4-2-2-2-2-2-2-I 5       THEN I-X-I ONE MORE
D--4-4-4-4-4-4-4-4-2-2-2-2-2-2-I TIMES        I-X-I TIME!
A--2-2-2-2-2-2-2-2-0-0-0-0-0-0-I              I-X-I
E--0-0-0-0-0-0-0-0-0-0-0-0-0-0-I              I-X-I

2ND verse (1st part)
E--------------------------------------I
B--------------------------------------I
G--------------------------------------I
D-8----8----8----5h7-------------------I
A-5----5----5--------5--5h7----2----2--I
E------------------------------0----0--I


2nd verse (2nd part)
E--------------------------------------I
B--------------------------------------I
G--------------------------------------I
D-0----0----0----5h7-------------------I
A-3----3----3--------5--5h7----2----2--I
E------------------------------0----0--I

Be sure to check out their website!
http://www.skateboredom.com/cky/homie8.html
Comments