Cky - 96 Quite Bitter Beings Chords & Tabs

 

96 Quite Bitter Beings Chords & Tabs

Cky Chords & Tabs

Version: 13 Type: Tab 0 ratings
1 star 2 stars 3 stars 4 stars 5 stars
comments

96 Quite Bitter Beings Tab

   
Song:96 Quite Bitter Beings
Album:Volume 1
Artist:CKY
Genre:Alternative Metal
Year:1999
Tuning:Half-Step Down (Eb,Ab,Db,Gb,Bb,Eb)

Intro x4
Eb---------------------------------------------------|
Bb---------------------------------------------------|
Gb-----4----------4-5-4------------5/7-5--4-2---4----|
Db-2-5---2~~--2-5-------5-4-5----5------------5---5--|
Ab-----------------------------3---------------------|
Eb---------------------------------------------------|

Pre-Verse 1 x2
Eb-----------------|
Bb-----------------|
Gb----------6-6-6--|
Db-2-2-2--2-6-6-6--|
Ab-2-2-2--2-4-4-4--|
Eb-0-0-0--0-4-4-4--|

Verse 1 x4
Eb-----------------|
Bb-----------------|
Gb----------6-6-6--|
Db-2-2-2--2-6-6-6--|
Ab-2-2-2--2-4-4-4--|
Eb-0-0-0--0-4-4-4--|

Then:
*Pre-Verse 2 x4
*Verse 2 x6

Bridge 1 Pt.1 x8
Eb-00000--00000--|
Bb-00000--00000--|
Gb-00000--00000--|
Db-99999--77777--|
Ab-77777--55555--|
Eb-00000--00000--|
[ Tab from: http://www.guitartabs.cc/tabs/c/cky/96_quite_bitter_beings_tab_ver_13.html ]
Bridge 1 Pt.2 x2
Eb------------------------|
Bb------------------------|
Gb-----------7------------|
Db-7-7-7--XX-5-7-7/9-9-9--|
Ab-5-5-5--XX---5-5/7-7-7--|
Eb------------------------|

Eb--------------------------|
Bb--------------------------|
Gb-------------7------------|
Db---5-5-5--XX-5-7-7/9-9-9--|
Ab-2-3-3-3--XX---5-5/7-7-7--|
Eb-0------------------------|

Then:
*Bridge 1 Pt.1 x8
*Bridge 1 Pt.2 x2

Outro x8
Eb---------------------------------------------------|
Bb---------------------------------------------------|
Gb-----4----------4-5-4------------5/7-5--4-2---4----|
Db-2-5---2~~--2-5-------5-4-5----5------------5---5--|
Ab-----------------------------3---------------------|
Eb---------------------------------------------------|

Song Order:
*Intro x4
*Pre-Verse 1 x2
*Verse 1 x4
*Pre-Verse 2 x4
*Verse 2 x6
*Bridge 1 Pt.1 x8
*Bridge 1 Pt.2 x2
*Bridge 1 Pt.1 x8
*Bridge 1 Pt.2 x2
*Outro x8

Key:
/=Slide Up
~=Let Ring
X=Mute The Strings

*Here Is A Link If You Wanna Play Along:
http://www.youtube.com/watch?v=hhKhBPjhir0

*Don't Forget To Rate And Comment If You
Liked The Tab, And Comment Any Corrections,
I Welcome Corrections.
Comments