Cky - 96 Quite Bitter Beings Chords & Tabs

 

96 Quite Bitter Beings Chords & Tabs

Cky Chords & Tabs

Version: 10 Type: Tab 0 ratings
1 star 2 stars 3 stars 4 stars 5 stars
comments

96 Quite Bitter Beings Tab

   
Artist: Cky
Song: 96 Quite Bitter Beings
Album: Volume 1
Tabed by: AndyMan 
e-mail: AlongComesMary6@yahoo.com

alright so this is my version of 96 quite bitter beings. i know theres a lot of tabs
for this song but none of them seemed to be right to me so i decided to do it myself.
I'm almost positive its right, but if not oh well. if you have any comments or corrections
e-mail me. listen to the song for the rythem. the last thing is to play the intro right
and make is sound right you have to have fast fingers.

Tuned half step down (eb bb gb dg ab eb)

Key
p=pulloff
h=hammer on
/=slide
[ Tab from: http://www.guitartabs.cc/tabs/c/cky/96_quite_bitter_beings_tab_ver_10.html ]
Intro (x4)
e|-------------------------------------------------
b|-------------------------------------------------
g|-------4--------4-5p4--------5-5/7-5-4-2-0-2/4---
d|-----5--------5------5-4----5------------------5-
a|---7-----7--7-----------5-3----------------------
e|-------------------------------------------------

Verse (x6)
e|-------------------
b|-------------------
g|-------------4-4-4-
d|---2-2-2---2-4-4-4-
a|---2-2-2---2-6-6-6-
e|---0-0-0---0-------

Intro (x4)

Verse (x6)

Bridge 1 (play x5 then quick palm mute then play x2)
e|---0-0-0-0-0-0-
b|---0-0-0-0-0-0-
g|---0-0-0-0-0-0-
d|---9-9-9-9-7-7-
a|---7-7-7-7-5-5-
e|---0-0-0-0-0-0-

Bridge 2 (x2)
e|-------------------------------------------
b|-------------------------------------------
g|-------------------------------------------
d|---7-7-7--12/7-9--2-2---5-5-5--12/7-9--2-2-
a|---5-5-5--10/5-7--2-2---3-3-3--10/5-7--2-2-
e|------------------0-0--0---------------0-0-

Repeat Bridges 1&2

Intro (x8)

well thats it hope this helped you out
Comments