Cky - 96 Quite Bitter Beings Chords & Tabs

 

96 Quite Bitter Beings Chords & Tabs

Cky Chords & Tabs

Version: 9 Type: Bass Tab 0 ratings
1 star 2 stars 3 stars 4 stars 5 stars
comments

96 Quite Bitter Beings Bass Tab

             ______________________________________
            |            Artist : CKY              |
            |    Song: 96 QUITE BITTER BEINGS      |
            |           Album: VOLUME 1            | 
            |          Tabbed by: aafs41           |
            | email: scream_double_r@hotmail.com   |
            |______________________________________|


|||-------------|----3-4-3-------|--------------|-3------3-----|3x
|4|------------|--4-------4-3---|--------------|---6-4-----4-|
|4|6-6-6--6----|6-------------4-|-2-2-2--2-.-.-|-------------|
|||-------------|----------------|--------------|--------------|
    ___          _______________   ___


|-------------|-------------|-------------|--------------|
|---*-----*--|----*--*-----|----*-----*--|----*--*--*--|
|---*-----*--|----*--*-----|-3--*--3--*--|-3--*--*--*--|
|-1-----1-----|-1--------1--|-------------|--------------|


|-------------|-------------|-------------|-------------|3x
|---*-----*--|----*--*-----|----*-----*--|---*--*--*--|
|---*-----*--|----*--*-----|-3--*--3--*--|3--*--*--*--|
|-1-----1-----|-1--------1--|-------------|-------------|


|-------------|----3-4-3-------|--------------|-3------3-----|3x
|------------|--4-------4-3---|--------------|---6-4-----4-|
|6-6-6--6----|6-------------4-|-2-2-2--2-.-.-|-------------|
|-------------|----------------|--------------|--------------|
  ___          _______________   ___

                                           ___           ___
                                          /1            /2
|-------------|-------------|-------------|-------------|------------|
|---*-----*--|----*--*-----|----*-----*--|---*--*--*--|--------*---|
|---*-----*--|----*--*-----|-3--*--3--*--|3--*--*--*--|-3--3-/6-3--|
|-1-----1-----|-1--------1--|-------------|-------------|------------|


|-------------|-------------|------------|----------0---|3x
|-1..........|.....--3--1--|------------|-------3-----|
|------------|-------------|-3..........|.....--------|
|-------------|-------------|------------|--------------|


|||------------------------|4x
|6|----------------------|
|4|----------------------|
|||-888-888-8--666-666-666-|
    ___ ___    ___ ___ ___


||------------------------|-----------------------------------|
||---------------------*--|---------------------------------|
||---------------------*--|---------------------------------|
||-888-888-8--666-666-6---|-8-8-8-8-8-8-8--6-6-6-6-6-6-6-6-6--|
   ___ ___    ___ ___ __    _____ _____    _____ _____ _____ 
  
[ Tab from: http://www.guitartabs.cc/tabs/c/cky/96_quite_bitter_beings_btab_ver_9.html ]
|||--------------|------------|------------|------------|------------|
|4|----*-----*--|---*--4-----|---*-----*--|---*--*-----|---*-----*--|
|4|-4--*--4--*--|4--*-----4--|---*-----*--|---*--*-----|---*-----*--|
|||--------------|------------|1-----1-----|1--------8--|6-----6-----|


|-------------|------------|--------|
|----*--4-----|---*-----*--|---***-|
|----*-----4--|---*-----*--|---***-|
|-6-----------|1-----1-----|1-------|


|||------------------------|4x
|6|----------------------|
|4|----------------------|
|||-888-888-8--666-666-666-|
    ___ ___    ___ ___ ___


||------------------------|-----------------------------------|
||---------------------*--|---------------------------------|
||---------------------*--|---------------------------------|
||-888-888-8--666-666-6---|-8-8-8-8-8-8-8--6-6-6-6-6-6-6-6-6--|
   ___ ___    ___ ___ __    _____ _____    _____ _____ _____ 

                                                         ____
                                                        /1
|||--------------|------------|------------|------------|------------|
|4|----*-----*--|---*--4-----|---*-----*--|---*--*-----|---*-----*--|
|4|-4--*--4--*--|4--*-----4--|---*-----*--|---*--*-----|---*-----*--|
|||--------------|------------|1-----1-----|1--------8--|6-----6-----|

                                     ____
                                    /2
|-------------|------------|--------|------------|-------------|-----------|
|----*--4-----|---*-----*--|---***-|---*-----*--|----*--4-----|---*-----*-|
|----*-----4--|---*-----*--|---***-|---*-----*--|----*-----4--|---*-----*-|
|-6-----------|1-----1-----|1-------|6-----6-----|-6-----------|1-----1----|


|--------|-------------|----3-4-3-------|--------------|-3------3-----|6x
|---***--|------------|--4-------4-3---|--------------|---6-4-----4-|
|---***--|6-6-6--6----|6-------------4-|-2-2-2--2-.-.-|-------------|
|1-------|-------------|----------------|--------------|--------------|
           ___          _______________   ___


|-------------|----3-4-3-------|--------------|-3------3-----|
|-------------|--4-------4-3---|--------------|---6-4-----4--|
|-6-6-6--6----|6-------------4-|-2-2-2--2-.-.-|--------------|
|-------------|----------------|--------------|--------------|
  ___          _______________   ___


...: sustain the note

___: play fast.. (you'll figure it out when you'll listen to the song) 

*
*: silence (1)

remember.. 3x means to play 4 times ...

ok.. i know there's already 5 versions of the song.. but this one works too!
Comments