Cky - 96 Quite Bitter Beings Chords & Tabs

 

96 Quite Bitter Beings Chords & Tabs

Cky Chords & Tabs

Version: 7 Type: Bass Tab 0 ratings
1 star 2 stars 3 stars 4 stars 5 stars
comments

96 Quite Bitter Beings Bass Tab

Cky
"96 Quite Bitter Beings"
Tabbed by Moshier Himself

This is exactly how it goes, so enjoy!

Intro:(4x's)
G-----3------3-4-3-------6-4-3-1---3-
D-1-4--1--1-4-----4-3---4--------4--4
A--------------------4-2-------------
E------------------------------------

Verse:(6x's)
G---------------
D-1-1-1--1------
A----------3-3-3
E---------------

Intro 4x's

Verse 6x's
[ Tab from: http://www.guitartabs.cc/tabs/c/cky/96_quite_bitter_beings_btab_ver_7.html ]
Distorted Part:(8x's)
G---------------------
D---------------------
A-6-6-6-6-6--4-4-4-4-4
E---------------------

New Verse:(2x's)

G----------------------------------
D----------------------------------
A-4-4-4-4--6-6-6--6--2-2-2-2--6-6-6
E----------------------------------

Distorted Part 8x's

New Verse 2x's

Intro:(8x's)
G-----3------3-4-3-------6-4-3-1---3-
D-1-4--1--1-4-----4-3---4--------4--4
A--------------------4-2-------------
E------------------------------------

Questions or Comments email me at curbdog11@hotmail.com
Comments