Cky - 96 Quite Bitter Beings Chords & Tabs

 

96 Quite Bitter Beings Chords & Tabs

Cky Chords & Tabs

Version: 6 Type: Bass Tab 0 ratings
1 star 2 stars 3 stars 4 stars 5 stars
comments

96 Quite Bitter Beings Bass Tab

   
This song is so cool!!!
[ Tab from: http://www.guitartabs.cc/tabs/c/cky/96_quite_bitter_beings_btab_ver_6.html ]
Intro:
G-----------------------------------------
D-----8---------8^-9^---------------------
A---9---------9^-------9^-8^--------8^-9^-
E-11----11-11---------------9^-8^-0-------

Verse:
/Palm----Mute\
G-----------------------
D-----------------------
A-----------------------
E-8-8-6-2-0-2-8-8-6-2-0-

Then just repeat the intro after the verse and you'll be all right!
Comments