Cky - 96 Quite Bitter Beings Chords & Tabs

 

96 Quite Bitter Beings Chords & Tabs

Cky Chords & Tabs

Version: 5 Type: Bass Tab 0 ratings
1 star 2 stars 3 stars 4 stars 5 stars
comments

96 Quite Bitter Beings Bass Tab

this is a wicked song. enjoy!

intro...
G -------------------------------------------
D -----------------------------0-------------
A -------------2-3-2-0----------3--2-0---2---
E 0__3-2-0--0-3---------3-2-0-3---------3---3-

Verse...
G ---------------
D ---------------
A ---------4-4-4-
E 0-0-0--0-------
[ Tab from: http://www.guitartabs.cc/tabs/c/cky/96_quite_bitter_beings_btab_ver_5.html ]
intro...
verse...
...2nd verse
G ---------------------------------11-12----------11-12--
D --------------------14-14-14--14-------11-11-11--------
A ---------4-4-4___12------------------------------------
E 0-0-0--0-----------------------------------------------
 4x

distorted part (too dirty to pick out notes, play whatever)
G -------------------------------
D -------------------------------
A --------------------------2----
E 0-0-0-0-0-0-0-0-0-0-0-0-0--3---
 8x

G --------0----------------0---------
D 0-0-0-4---2-2-2--2---------4-------
A -------------------3-3-3-----2-2-2-
E -----------------------------------

intro...

The End

this song kicks ass, have fun!
Comments