Cky - 96 Quite Bitter Beings Chords & Tabs

 

96 Quite Bitter Beings Chords & Tabs

Cky Chords & Tabs

Version: 10 Type: Bass Tab 0 ratings
1 star 2 stars 3 stars 4 stars 5 stars
comments

96 Quite Bitter Beings Bass Tab

   
Main Riff 4x
G---------------------------------------------------------------------|
D-------9----------------9-10-9----------------12-10--9-------9-------|
A----10---------------10--------10-9-------10-----------12-10---10----|
E-12-------0-------12----------------10-8-----------------------------|


Verse(1) 6x
G------------------------------|
D------------------------------|
A-----------------4---4---4----|
E-0---0---0-----0--------------|


Main Riff 4x

Verse(1) 2x

Verse(2) 4x
G--------------------------------------------|
D--------------------------------------------|
A--------------------------------------------|
E-s12-12-12-12-12-12-12-12s-9-9-9-9-9-9-9-9s-|
(slide in from 9 when it starts first)

[ Tab from: http://www.guitartabs.cc/tabs/c/cky/96_quite_bitter_beings_btab_ver_10.html ]
Bridge 6x
G-------------------------|
D-------------------------|
A-------------------------|
E-0-0-0-0-0-0-3-3-3-3-3-3-|
(i'm not sure if that's exactly what cky plays but it sound allright)

Quick pause

Bridge 2x

Verse(3) 2x
G------------------------------------------------------------------|
D-------------5-0-2---------------------------5-0-2----------------|
A-5---5---5-----------------------3---3---3------------------------|
E---------------------0---0-----0----------------------0---0-----0-|

Bridge 6x

Quick Pause

Bridge 2x

Verse(3) 2x

Main Riff 8x

That's it but if you want the song to sound real cool play this as Main Riff:
G--------------------------------------------------------|
D--------------------------------------------------------|
A------2---------2-3-2-------------5--3--2-0----2--------|
E-0--3---0-----0-------3-2-3-0--2------------3-----3-----|
Comments