Cky - 96 Quite Bitter Beings Chords & Tabs

 

96 Quite Bitter Beings Chords & Tabs

Cky Chords & Tabs

Version: 1 Type: Bass Tab 0 ratings
1 star 2 stars 3 stars 4 stars 5 stars
comments

96 Quite Bitter Beings Bass Tab

   
Artist: cky
Song:   96 Quite Bitter Beings
Album:  Camp Volume 1


since everyone else who has tabbed this is a friggin idiot,
i have tabbed the CORRECT version... i give credit to you 
guys for trying, but you’re so far off its not even funny.

tune down one half step (Gb, Db, Ab, Eb)


intro/chorus
Gb----------------------------------------------
Db-----9-------9-10-9----------12-10-9-----9----
Ab---10------10------10-9----10-------12-10-10--
Eb-12---0--12------------10-8-------------------

verse
Gb----------------------
Db----------------------
Ab------------16-16-16--
Eb-12-12-12-12----------
[ Tab from: http://www.guitartabs.cc/tabs/c/cky/96_quite_bitter_beings_btab.html ]
alternate verse
Gb--------------------------------------------
Db--------------------------------------------
Ab--------------------------------------------
Eb-12-12-12-12-12-12-15-14-9-9-9-9-9-9-14-15—

bridge
Gb--------------------------------------
Db--------------------------------------
Ab-14-14-14-14-14-14-12-12-12-12-12-12--
Eb--------------------------------------

other riff
Gb---------------------------------------------------
Db----------12-7----------------------12-7-----------
Ab-12-12-12------14-14-14--8-12-12-12------14-14-14--
Eb---------------------------------------------------

order of riffs
intro/chorus x 4
verse x 6
intro/chorus x 4
verse x 2
alternate verse x 4
bridge x 8
other riff x 2
bridge x 8
other riff x 2
intro/chorus x 8
Comments