City And Colour - Sam Malone Chords & Tabs

 

Sam Malone Chords & Tabs

City And Colour Chords & Tabs

Version: 2 Type: Tab

Sam Malone Tab

EX---X---X-|
B0---0---0-|
G7-p-6---6-|
D0---0-h-7-|
A5---5---5-|
E7---7---7-|

Then:

EX ------------------- EX --X-|
BX ------------------- BX --X-|
G0 ------------------- G0 --0-|
D0 ------------------- D4 --4-|
A0h2 ----------------- A2 h-5-|
E3 ------------------- E3 --3-|
[ Tab from: http://www.guitartabs.cc/tabs/c/city_and_colour/sam_malone_tab_ver_2.html ]
E----------------------------|
B----------------------------|
G--2--(4)-4------------------|
D--0---4--4------------------|
A--0---x--x------------------|
E------2--3------------------|

E-------------2--------0--------|
B---2p0h2-----3p2h3----3--------|
G---2---------4--------4--------|
D---2---------4--------5--------|
A---0---------2--------5--------|
E----------------------3p2------|