City And Colour - Off By Heart Chords & Tabs

 

Off By Heart Chords & Tabs

City And Colour Chords & Tabs

Version: 1 Type: Tab

Off By Heart Tab

Was bored one night at uni playing poker so thort id try to write
a few tabs to some city and colour songs seeing as there are none
on the site. Hopefully it can b a foundation for much better tabs
to be written! This one is dedicated to Hill 27 as he let me put
the album on my comp. Cheers Millage!


Song:     ...Off By Heart

Artist:   City and Colour

Album:    Sometimes

Tabbed By: Roomsey 11


Intro:

e:----5-------4-------5-------4---2----|
B:----5-------5-------5-------5---2----|
G:----6-------6-------6-------6---2----|
D:----7-------6-------7-------6---4----|
A:----7-------4-------7-------4---4----|
E:----5-------4-------5-------4---2----|


Verse:

         The stars are aligned
e:----5-------4-------5-------4---2----|
B:----5-------5-------5-------5---2----|
G:----6-------6-------6-------6---2----|
D:----7-------6-------7-------6---4----|
A:----7-------4-------7-------4---4----|
E:----5-------4-------5-------4---2----|


     but they don't align for us
e:----5-------4-------5-------4---2----|
B:----5-------5-------5-------5---2----|
G:----6-------6-------6-------6---2----|
D:----7-------6-------7-------6---4----|
A:----7-------4-------7-------4---4----|
E:----5-------4-------5-------4---2----|


     Excuse   me for  I       am the
e:----5-------4-------5-------4---2----|
B:----5-------5-------5-------5---2----|
G:----6-------6-------6-------6---2----|
D:----7-------6-------7-------6---4----|
A:----7-------4-------7-------4---4----|
E:----5-------4-------5-------4---2----|


    ocean
e:----5-------4-------5-------4---2----|
B:----5-------5-------5-------5---2----|
G:----6-------6-------6-------6---2----|
D:----7-------6-------7-------6---4----|
A:----7-------4-------7-------4---4----|
E:----5-------4-------5-------4---2----|


       and I will starve for you
e:----5-------4-------5-------4---2----|
B:----5-------5-------5-------5---2----|
G:----6-------6-------6-------6---2----|
D:----7-------6-------7-------6---4----|
A:----7-------4-------7-------4---4----|
E:----5-------4-------5-------4---2----|


      Will you know how to stay brave?
e:----5-------4-------5-------4---2----|
B:----5-------5-------5-------5---2----|
G:----6-------6-------6-------6---2----|
D:----7-------6-------7-------6---4----|
A:----7-------4-------7-------4---4----|
E:----5-------4-------5-------4---2----|

[ Tab from: http://www.guitartabs.cc/tabs/c/city_and_colour/off_by_heart_tab.html ]
     Such fragile moments
e:----5-------4-------5-------4---2----|
B:----5-------5-------5-------5---2----|
G:----6-------6-------6-------6---2----|
D:----7-------6-------7-------6---4----|
A:----7-------4-------7-------4---4----|
E:----5-------4-------5-------4---2----|


   we share
e:----5-------4-------5-------4---2----|
B:----5-------5-------5-------5---2----|
G:----6-------6-------6-------6---2----|
D:----7-------6-------7-------6---4----|
A:----7-------4-------7-------4---4----|
E:----5-------4-------5-------4---2----|


      You are my every...
e:----5-------4-------5-------4---2----|
B:----5-------5-------5-------5---2----|
G:----6-------6-------6-------6---2----|
D:----7-------6-------7-------6---4----|
A:----7-------4-------7-------4---4----|
E:----5-------4-------5-------4---2----|


      thing
e:----5-------4-------5-------4--------|
B:----5-------5-------5-------5--------|
G:----6-------6-------6-------6--------|
D:----7-------6-------7-------6--------|
A:----7-------4-------7-------4--------|
E:----5-------4-------5-------4--------|


     Even with nothing to
e:----5-------4-------5-------4--------|
B:----5-------5-------5-------5--------|
G:----6-------6-------6-------6--------|
D:----7-------6-------7-------6--------|
A:----7-------4-------7-------4--------|
E:----5-------4-------5-------4--------|


      say
e:----5-------4-------5-------4--------|
B:----5-------5-------5-------5--------|
G:----6-------6-------6-------6--------|
D:----7-------6-------7-------6--------|
A:----7-------4-------7-------4--------|
E:----5-------4-------5-------4--------|


     ooooooohh
e:----5-------4-------5-------4---2----|
B:----5-------5-------5-------5---2----|
G:----6-------6-------6-------6---2----|
D:----7-------6-------7-------6---4----|
A:----7-------4-------7-------4---4----|
E:----5-------4-------5-------4---2----|

     ooooooohh
e:----5-------4-------5-------4---2----|
B:----5-------5-------5-------5---2----|
G:----6-------6-------6-------6---2----|
D:----7-------6-------7-------6---4----|
A:----7-------4-------7-------4---4----|
E:----5-------4-------5-------4---2----|


e:----5-------4-------5-------4---2-------5---|
B:----5-------5-------5-------5---2-------5---|
G:----6-------6-------6-------6---2-------6---|
D:----7-------6-------7-------6---4-------7---|
A:----7-------4-------7-------4---4-------7---|
E:----5-------4-------5-------4---2-------5---|


There it is...