Circle Jerks - I Wanna Destroy You Chords & Tabs

 

I Wanna Destroy You Chords & Tabs

Circle Jerks Chords & Tabs

Version: 1 Type: Tab 0 ratings
1 star 2 stars 3 stars 4 stars 5 stars
comments

I Wanna Destroy You Tab

circle jerks rock!
tuning-standard-EADGBe


Citar thingie converted to guitar

1-10-10-8-7----------------------------|
2----------10-8-7------------3-53-53---|
3----------------9-7/5---5b7-----------|
4--------------------------------------|
5--------------------------------------|
6--------------------------------------|

intro

1------------------------------|
2------------------------------|
3----------7-------------------| x32
4----------7-------------------|
5----------5-------------------|
6------------------------------|

chorus
[ Tab from: http://www.guitartabs.cc/tabs/c/circle_jerks/i_wanna_destroy_you_tab.html ]
1--------------------------------|
2--------------------------------|
3-7--------5----7----------------|
4-7---5----5----5----------------|
5-5---5----3----5----------------|
6-----3--------------------------|

bridge

1------------------------------|
2------------------------------|
3------------------------------|
4--------5---------------------| x32
5--------5---------------------|
6--------3---------------------|

outro(theres a strumming patern, im just not showing it)

1-0--2---------------7777777788888888--|
2-0--2-----11--12--10------------------| after that it just has feedback
3-1--3--9--11--11--9-------------------| and stuff until the end
4-2--4--9--11--9---7-------------------|
5-2--4--7--9---------------------------|
6-0--2---------------------------------|


Enjoy
Comments