Circle Jerks - High Price On Our Heads Chords & Tabs

 

High Price On Our Heads Chords & Tabs

Circle Jerks Chords & Tabs

Version: 1 Type: Tab 0 ratings
1 star 2 stars 3 stars 4 stars 5 stars
comments

High Price On Our Heads Tab

        play this 4 times                    /= slide  the slide is optional,
------------------------------|             but I like it.
------------------------------|
-----------9-9---7---5--------|             play with lots of distortion
-----7-7---9-9---7---5---5----|
-----7-7---7-7---5---3---5----|             tabbed by jordan aronson, any
-----5-5-----------------3----|             questions or comments my email is
                                           skatepunk22@netzero.com

      play this 6 times
------------------------------|
------------------------------|
-----------------5------------|
-----7-7---5-5---5---5-/-7----|
-----7-7---5-5---3---5-/-7----|
-----5-5---3-3-------3-/-5----|


  plat this twice
-------------------------------|
-------------------------------|
--------4---5---4--------------|
----7---4---5---4---5---4---7--|
----7---2---3---2---5---4---7--|
----5---------------3---2---5--|
[ Tab from: http://www.guitartabs.cc/tabs/c/circle_jerks/high_price_on_our_heads_tab.html ]
    repeat once and cime down here
           play this twice
----------------------------------------|
----------------------------------------|
----------------------------------------|
--7-7-7---7-10-----7-7-7---7-10-10-10---|
--7-7-7---7-10-----7-7-7---7-10-10-10---|
--5-5-5---5-8------5-5-5---5-8--8--8----|


        play 4 times
------------------------|
------------------------|
-------------4----------|
-7-7---5-5---4----------|
-7-7---5-5---2----------|
-5-5---3-3--------------|
      here is where the solo should be except i don't know it

          play 6 times
------------------------------|
------------------------------|
-----------------5------------|
-----7-7---5-5---5---5-/-7----|
-----7-7---5-5---3---5-/-7----|
-----5-5---3-3-------3-/-5----|

  plat this twice
-------------------------------|
-------------------------------|
--------4---5---4--------------|
----7---4---5---4---5---4---7--|
----7---2---3---2---5---4---7--|
----5---------------3---2---5--|

           play this twice
----------------------------------------|
----------------------------------------|
----------------------------------------|
--7-7-7---7-10-----7-7-7---7-10-10-10---|
--7-7-7---7-10-----7-7-7---7-10-10-10---|
--5-5-5---5-8------5-5-5---5-8--8--8----|

        play 4 times
------------------------|
------------------------|
-------------4----------|
-7-7---5-5---4----------|
-7-7---5-5---2----------|
-5-5---3-3--------------|
   and thats the end of the song
Comments