Circle Jerks - Beverly Hills Chords & Tabs

 

Beverly Hills Chords & Tabs

Circle Jerks Chords & Tabs

Version: 1 Type: Tab 0 ratings
1 star 2 stars 3 stars 4 stars 5 stars
comments

Beverly Hills Tab

gotta love them circle jerks

tuning-standard-EADGBe

Riff 1

1------------------------------|
2------------------------------|
3------------------------------|
4----------999-----66----------|
5-66666666-777-999-44----------|
6-44444444-----777-------------|

Riff 2
[ Tab from: http://www.guitartabs.cc/tabs/c/circle_jerks/beverly_hills_tab.html ]
1-2--4--2--4--0--2--0--2---------------|
2-2--4--2--4--0--2--0--2---------------|
3-3--5--3--5--1--3--1--3---------------| hit each chord 8 times
4-4--6--4--6--2--4--2--4---------------|
5-4--6--4--6--2--4--2--4---------------|
6-2--4--2--4--0--2--0--2---------------|

peace out
Comments