Circle Jerks - Back Against The Wall Chords & Tabs

 

Back Against The Wall Chords & Tabs

Circle Jerks Chords & Tabs

Version: 1 Type: Tab 1 rating
1 star 2 stars 3 stars 4 stars 5 stars
comments

Back Against The Wall Tab

Circle Jerks
Back Against The Wall
by Wolfstrike
Wolfstrike2@usinmail.com






intro

E:--3-2--------------------2----3--2-----5--------(5)-------------|
B:------3---------------3-------------3----------------(0)(0)-----|
G:--------2---(2)----2---------------------------------(0)(0)-----|
D:-----------------------------------------------------(0)(0)-----|
A:-----------------------------------------------------(0)(0)-----|
E:----------------------------------------------------------------|



        Verse 1 & 2          (* guitar noise second verse)        

E:---------------------------------------|
B:--4-4----8-8----5-5----7-7-(P-0)-------|
G:--4-4----7-7----4-4----7-7-------------|
D:--4-4----5-5----2-2----7-7-------------|
A:--2-2------------------5-5-------------|
E:---------------------------------------|


   chorus


E:--------------------------------------|
B:--0-0-0-0-0-0-0-0-0-0-0-0-0-0-0-0-----|
G:--1-1-1-1-1-1-1-1-1-1-1-1-1-1-1-1-----|
D:--2-2-2-2-2-2-2-2-2-2-2-2-2-2-2-2-----|
A:--2-2-2-2-2-2-2-2-2-2-2-2-2-2-2-2-----|
E:--0-0-0-0-0-0-0-0-0-0-0-0-0-0-0-0-----|

E:------------------------------------|
B:--3-3-3-3-3-3-3-3-3-3-3-3-3-3-3-3---|
G:--4-4-4-4-4-4-4-4-4-4-4-4-4-4-4-4---|
D:--5-5-5-5-5-5-5-5-5-5-5-5-5-5-5-5---|
A:--5-5-5-5-5-5-5-5-5-5-5-5-5-5-5-5---|
E:--3-3-3-3-3-3-3-3-3-3-3-3-3-3-3-3---|

E:--------------------------------------|
B:--0-0-0-0-0-0-0-0-0-0-0-0-0-0-0-0-----|
G:--1-1-1-1-1-1-1-1-1-1-1-1-1-1-1-1-----|
D:--2-2-2-2-2-2-2-2-2-2-2-2-2-2-2-2-----|
A:--2-2-2-2-2-2-2-2-2-2-2-2-2-2-2-2-----|
E:--0-0-0-0-0-0-0-0-0-0-0-0-0-0-0-0-----|

E:------------------------------------|
B:--3-3-3-3-3-3-3-3-4-4-4-4-4-4-4-4---|
G:--4-4-4-4-4-4-4-4-5-5-5-5-5-5-5-5---|
D:--5-5-5-5-5-5-5-5-6-6-6-6-6-6-6-6---|
A:--5-5-5-5-5-5-5-5-6-6-6-6-6-6-6-6---|
E:--3-3-3-3-3-3-3-3-4-4-4-4-4-4-4-4---|



          solo

E:-----------------------------------------|
B:--5----5----5----5-----5--5--5-----------|
G:-B7---B7---B7---B7----B7-B7-B7-----------|
D:-----------------------------------------|
A:-----------------------------------------|
E:-----------------------------------------|
[ Tab from: http://www.guitartabs.cc/tabs/c/circle_jerks/back_against_the_wall_tab.html ]
E:------------------------------------------------------|
B:---8---8-8-----8----8-8-----8----8-8------8---8-8-----|
G:-B10---------B10----------B10-----------B10-----------|
D:------------------------------------------------------|
A:------------------------------------------------------|
E:------------------------------------------------------|

E:--12-12-12-12------12-------12------------12---------12--|
B:--12-12-12-12-14---12-14----12-14---12-14-12---12-14-12--|
G:--------------0-------14-------14---12-14------12-14-----|
D:---------------------------------------------------------|
A:---------------------------------------------------------|
E:---------------------------------------------------------|

E:--/-15-15-15-15-15-15-15-15-17-17-17-17-17-17-17-17------|
B:--/-15-15-15-15-15-15-15-15-17-17-17-17-17-17-17-17------|
G:-----------------------------------------------------(0)-|
D:-----------------------------------------------------(0)-|
A:-----------------------------------------------------(0)-|
E:---------------------------------------------------------|



            Double time  Verse 3


E:---------------------------------------|
B:--4-4-----8-8-----5-5---7-----7-7-7----|
G:--4-4-x-x-7-7-x-x-4-4-x-7-----7-7-7----|
D:--4-4-x-x-5-5-x-x-2-2-x-7-----7-7-7----|
A:--2-2-x-x-----x-x-----x-5-----5-5-5----|
E:---------------------------------------|



   chorus


E:--------------------------------------|
B:--0-0-0-0-0-0-0-0-0-0-0-0-0-0-0-0-----|
G:--1-1-1-1-1-1-1-1-1-1-1-1-1-1-1-1-----|
D:--2-2-2-2-2-2-2-2-2-2-2-2-2-2-2-2-----|
A:--2-2-2-2-2-2-2-2-2-2-2-2-2-2-2-2-----|
E:--0-0-0-0-0-0-0-0-0-0-0-0-0-0-0-0-----|

E:------------------------------------|
B:--3-3-3-3-3-3-3-3-3-3-3-3-3-3-3-3---|
G:--4-4-4-4-4-4-4-4-4-4-4-4-4-4-4-4---|
D:--5-5-5-5-5-5-5-5-5-5-5-5-5-5-5-5---|
A:--5-5-5-5-5-5-5-5-5-5-5-5-5-5-5-5---|
E:--3-3-3-3-3-3-3-3-3-3-3-3-3-3-3-3---|

E:--------------------------------------|
B:--0-0-0-0-0-0-0-0-0-0-0-0-0-0-0-0-----|
G:--1-1-1-1-1-1-1-1-1-1-1-1-1-1-1-1-----|
D:--2-2-2-2-2-2-2-2-2-2-2-2-2-2-2-2-----|
A:--2-2-2-2-2-2-2-2-2-2-2-2-2-2-2-2-----|
E:--0-0-0-0-0-0-0-0-0-0-0-0-0-0-0-0-----|

E:-------------------------------------|
B:--3-3-3-3-3-3-3-3-4-4-4-4-4-4-4-4--1-|
G:--4-4-4-4-4-4-4-4-5-5-5-5-5-5-5-5--2-|
D:--5-5-5-5-5-5-5-5-6-6-6-6-6-6-6-6--2-|
A:--5-5-5-5-5-5-5-5-6-6-6-6-6-6-6-6--2-|
E:--3-3-3-3-3-3-3-3-4-4-4-4-4-4-4-4--0-|


Comments