Circle Jerks - 15 Minutes Chords & Tabs

 

15 Minutes Chords & Tabs

Circle Jerks Chords & Tabs

Version: 1 Type: Bass Tab 0 ratings
1 star 2 stars 3 stars 4 stars 5 stars
comments

15 Minutes Bass Tab

circle jerks
"15 minutes" off of the album "wonderful"

heres the bass intro to tide you over for a few minutes



verse 1

--------------------------------------------------------
------55-----------------------------------------------
--7777---77-5555-00---7777----5555-00-------------------
-------------------00-----0000--------00----------------
[ Tab from: http://www.guitartabs.cc/tabs/c/circle_jerks/15_minutes_btab.html ]
it changes after 2 times of playing that a little bit....

verse 2
-------------------------------------------------------
-----55-77--------------------------------------------
-7777------5555-00--7777----5555-00--------------------
------------------00----0000-------00------------------

then start over...remember to add that little change in verse 2 after 2
times of playing verse 1

tabbed out by Mr. Mosavian


Comments