Cinderella - Shake Me Chords & Tabs

 

Shake Me Chords & Tabs

Cinderella Chords & Tabs

Version: 3 Type: Tab 0 ratings
1 star 2 stars 3 stars 4 stars 5 stars
comments

Shake Me Tab

Song - Shake Me
Group - Cinderella

Written by -Tom Keifer
Album - Night Songs
Tabbed by - Ilia V.... (March 8, 2004)
______________________________________________________


Main Riff X4
E||----------------------------------------------|
B||----------------------------------------------|
G||-----------------------------------2----------|
D||---9------9--5------5--2-----------2------2---|
A||---9------9--5------5--2-----------0------2---|
E||---7------7--3------3--0------3-4---------0---|


Main Riff 2nd Part X2
E||---------------------------------------------------|
B||---------------------------------------------------|
G||-----------------------------------2---------------|
D||---9------9--5------5--2-----------0-------2-------|
A||---9------9--5------5--2-----------0000000-2-------|
E||---77777777--33333333--0000000-3-4---------0000000-|


Chorus
E||-------------------------|------------------------|
B||-------------------------|------------------------|
G||---4-4---2---------------|---4-4------------------|
D||---4-4---2-----2---------|---4-4---2--------------|
A||---2-2---0-----0---------|---2-2---2-----5--------|
E||-----------3-4-0-3-4-0---|---------0-3-4---0-3-0--|


E||---------------------------|---------------|
B||---------------------------|---------------|
G||---4-4---2-----------------|---2-------4---|
D||---4-4---2-----2-----------|---2---4---4---|
A||---2-2---0-----2-----------|---0---4---2---|
E||-----------3-4-0-3-4-0-----|-------2-------|


Main Riff  X4
E||----------------------------------------------|
B||----------------------------------------------|
G||-----------------------------------2----------|
D||---9------9--5------5--2-----------2------2---|
A||---9------9--5------5--2-----------0------2---|
E||---7------7--3------3--0------3-4---------0---|


Main Riff 2nd Part X2                 X3 At 2nd time
E||----------------------------------|-----------------|
B||----------------------------------|-----------------|
G||----------------------------------|-2---------------|
D||---9------9--5------5--2----------|-0-------2-------|
A||---9------9--5------5--2----------|-0000000-2-------|
E||---77777777--33333333--0000000-3-4|---------0000000-|

[ Tab from: http://www.guitartabs.cc/tabs/c/cinderella/shake_me_tab_ver_3.html ]
Chorus
E||-------------------------|------------------------|
B||-------------------------|------------------------|
G||---4-4---2---------------|---4-4------------------|
D||---4-4---2-----2---------|---4-4---2--------------|
A||---2-2---0-----0---------|---2-2---2-----5--------|
E||-----------3-4-0-3-4-0---|---------0-3-4---0-3-0--|


E||-------------------------|------------------------|
B||-------------------------|------------------------|
G||---4-4---2---------------|---4-4------------------|
D||---4-4---2-----2---------|---4-4---2--------------|
A||---2-2---0-----2---------|---2-2---2-----5--------|
E||-----------3-4-0-3-4-0---|---------0-3-4---3-4-0--|

Then Comes The Big Solo, I Don't Know It

Solo 1st Part
E||------------------------------------------------------------------|
B||------------------------------------------------------------------|
G||--------4-----------------------------------------2-------------2-|
D||-----4----------------5-------------2----------2-------------2----|
A||--2----------------5-------------2----------0-------------0-------|
E||----------------3-------------0-----------------------------------|


Solo 2nd Part X3 (Real Solo)
E||-------------------------------------------------------------|
B||-------------------------------------------------------------|
G||---------------4-----------------------------------------2---|
D||------------4----------------5-------------2----------2------|
A||--2------2----------------5-------------2---0------0---------|
E||----------------3------3------0------0-----------------------|

OR

Solo X3 (My Solo)
E||-------------------------------------------------------------|
B||-------------------------------------------------------------|
G||--------4------4----------------------------------2------2---|
D||-----4------4---------5------5------2------2---2------2------|
A||--2------2---------5------5------2------2---0------0---------|
E||----------------3------3------0------0-----------------------|


Chorus X2
E||-------------------------|------------------------|
B||-------------------------|------------------------|
G||---4-4---2---------------|---4-4------------------|
D||---4-4---2-----2---------|---4-4---2--------------|
A||---2-2---0-----0---------|---2-2---2-----5--------|
E||-----------3-4-0-3-4-0---|---------0-3-4---0-3-0--|


E||-------------------------|------------------------|
B||-------------------------|------------------------|
G||---4-4---2---------------|---4-4------------------|
D||---4-4---2-----2---------|---4-4---2--------------|
A||---2-2---0-----2---------|---2-2---2-----5--------|
E||-----------3-4-0-3-4-0---|---------0-3-4---3-4-0--|
Comments