Cinderella - Shake Me Chords & Tabs

 

Shake Me Chords & Tabs

Cinderella Chords & Tabs

Version: 1 Type: Tab 0 ratings
1 star 2 stars 3 stars 4 stars 5 stars
comments

Shake Me Tab

Written by Tom Keifer
From the album: Night Songs
Tabbed by: Jeff Birdsell

One of the best riffs of the 80's from a very underated band.
No Solo or the little outro but still it's better than not.


* * Repeat Once Unless Stated
sl  Slide


Intro			          Main Riff
E||------------------------|------3---3------------------|
B||------------------------|------3---3------------------|
G||---2-2-2-2-2-2----sl----|---4--0---0----------2-------|
D||---2-2-2-2-2-2---9--4---|---4--0---0--2-------2---2---|
A||---0-0-0-0-0-0---9--4---|---2--x---x--2-------0---2---|
E||-----------------7--2---|------3---3--0---3-4-----0---|


Main Riff with extra B5           x3
E||----------3---3------------------|
B||*---------3---3-----------------*|
G||---4---4--0---0----------2-------|
D||---4---4--0---0--2-------2---2---|
A||*--2---2--x---x--2-------0---2--*|
E||----------3---3--0---3-4-----0---|


Main Riff with root note pumping (1)
E||-----------3----3--------------------|
B||-----------3----3--------------------|
G||---4----4--0----0-----------2--------|
D||---4----4--0----0--2--------2----2---|
A||---222222--x----x--2--------000002---|
E||-----------333333--000003-4------0---|


Main Riff with root note pumping (2)
E||-----------3----3-------------------|
B||-----------3----3-------------------|
G||---4----4--0----0-----------2-2-2---|
D||---4----4--0----0--2--------2-2-2---|
A||---222222--x----x--2--------0-0-0---|
E||-----------333333--000003-4---------|

[ Tab from: http://www.guitartabs.cc/tabs/c/cinderella/shake_me_tab.html ]
Chorus
E||-------------------------------|-------------------------------|
B||-------------------------------|-------------------------------|
G||---4--4--2---------------------|---4--4------------------------|
D||---4--4--2--------2------------|---4--4--2---------------------|
A||---2--2--0--------2------------|---2--2--2--------5------------|
E||------------3--4--0--3--4--0---|---------0--3--4-----0--3--0---|


E||-------------------------------|-------------|
B||-------------------------------|-------------|
G||---4--4--2---------------------|---2-----4---|
D||---4--4--2--------2------------|---2--4--4---|
A||---2--2--0--------2------------|---0--4--2---|
E||------------3--4--0--3--4--0---|------2------|


Then Repeat:
Main Riff
Main Riff with extra B5
Main Riff with root note pumping (1)


E||-----------3----3-------------------------|
B||-----------3----3-------------------------|
G||---4----4--0----0-----------2---2---2-----|
D||---4----4--0----0--2--------2-2-2-2-2-2---|
A||---222222--x----x--2--------0-2-0-2-0-2---|
E||-----------333333--000003-4---0---0---0---|


Then Repeat:
Chorus

(Don't know the bit before the solo)

SOLO

E||------------------------------------------|
B||------------------------------------------|
G||--------4--------------------------2--2---|
D||-----4-----------5--------2-----2-----2---|
A||--2-----------5--------2-----0--------0---|
E||-----------3--------0---------------------|


Then Repeat:
Main Riff with extra B5 twice

E||----------3---3------------------------|
B||----------3---3------------------------|
G||---4---4--0---0----------2---2---2-----|
D||---4---4--0---0--2-------2-2-2-2-2-2---|
A||---2---2--x---x--2-------0-2-0-2-0-2---|
E||----------3---3--0---3-4---0---0---0---|


Then Repeat:
Chorus twice

(There's a little outro here that I don't know either)
Comments