Cinderella - Save Me Chords & Tabs

 

Save Me Chords & Tabs

Cinderella Chords & Tabs

Version: 2 Type: Tab 0 ratings
1 star 2 stars 3 stars 4 stars 5 stars
comments

Save Me Tab

Somebody Save Me by Cinderlla

This is my first tab and i figured since nobody else put up a tab for this amazing song
then why the hell shouldnt i? i couldnt get the solo quite right, maybe later. Have fun!

intro/ verse
*p.m. all open notes*
|---------------------------------------|
|---------------------------------------|
|-2-----2-----2---10------10-----10-----|
|-2-----2-----2----8-------8------8-----|
|-0-0-0-0-0-0-0-0--8--0-0--8-0-0--8-0---|
|---------------------------------------|

|----------------------------------|2x then lead fill
|----------------------------------|
|-7-----7-----7---5-4-2-7-5-2-5-4--|
|-7-----7-----7---5-4-2-7-5-2-5-4--|
|-5-0-0-5-0-0-5-0-3-2-0-5-3-0-3-2--|
|----------------------------------|
[ Tab from: http://www.guitartabs.cc/tabs/c/cinderella/save_me_tab_ver_2.html ]
|------------------------------|2x second time end on 11
|-5----7--8---9---8---11--10---|                      13b
|-7b---9b-6b--11b-10b-13b-12b--|
|------------------------------|
|------------------------------|
|------------------------------|

main riff/verse many times, just follow along

after that play this before chorus/main riff

|---------------------------------|
|---------------------------------|
|-7~--2~--10-----10----10---2~----|
|-7~--2~---8------8-----8---2~----|
|-5~---~---8-0-0--8-0-0-8-0-0~----|
|---------------------------------|

 at the end, play the bends again and play the E5 chord 3 times and end


well, it might not be 100% right but at least its there. Great song from a great band
 go see them in concert-amazing. well have fun and good luck, review this please. thank
you.
Comments