Cinderella - Heartbreak Station Chords & Tabs

 

Heartbreak Station Chords & Tabs

Cinderella Chords & Tabs

Version: 3 Type: Tab 0 ratings
1 star 2 stars 3 stars 4 stars 5 stars
comments

Heartbreak Station Tab

   
tuning:standard
tabbed by:a crazy teenage rock and roll fan
intro riff
E|-----------3---------------3--------------5-------------------------|
B|-------------3---------------3--------------3-----------------------|
G|-------0---------------0---------------2------0-------0-----0-------|
D|-----0---0-----------0---0-----------0---0------0---0-----0-------0-|
A|---------------0-2-3------------------------------3-----2-----0h2---|
E|---3---------------------------0-3-2--------------------------------|
play this twice
[ Tab from: http://www.guitartabs.cc/tabs/c/cinderella/heartbreak_station_tab_ver_3.html ]
verse
E|---3--2--2--2-2-----------2---2-2---2-2-----------2-2-2--3-3-3---2-|
B|---0--3--3--3-3-----------3---3-3---3-3--1---1-1--3-3-3--0-0-0---3-|
G|---0--2--2--2-2-----------2---2-2---2-2--0---0-0--2-2-2--0-0-0---2-|
D|---0-------------2---2-2-----------------2---2-2---------0-0-0-----|
A|---2-------------2---2-2-----------------3---3-3---------3-3-3-----|
E|-3-3-------------0---0-0-----------------0---0-0---------2-2-2-----|

chorus
E|-------------------------1--3--1-1---2--2--2-2-|
B|-------------1--1--1-1---0--0--0-0---3--3--3-3-|
G|-------------0--0--0-0---0--0--0-0---2--2--2-2-|
D|-2--2--2-2---2--2--2-2---0--0--0-0-------------|
A|-2--2--2-2---3--3--3-3---2--2--2-2-------------|
E|-0--0--0-0---0--0--0-0---3--3--3-3-------------|
play this twice

chorus cont.
E|-----------------|
B|-------------1---|
G|-------------0---|
D|-2--2--2-2---2---|
A|-2--2--2-2---3---|
E|-0--0--0-0---0---|

then play the intro riff, verse and chorus again.

bridge
E|-------1-1-1-2-2-2-------------|
B|-4-4-4-0-0-0-3-3-3-1-1-1-1-1-1-|
G|-4-4-4-0-0-0-2-2-2-0-0-0-0-0-0-|
D|-4-4-4-0-0-0-------2-2-2-2-2-2-|
A|-2-2-2-2-2-2-------3-3-3-3-3-3-|
E|-------3-3-3-------0-0-0-0-0-0-|

then play the chorus over the solo. then play the intro riff, chorus twice, and then the 
riff for the end.

LONG LIVE ROCK AND ROLL!
Comments