Cinderella - Bad Seamstress Blues Chords & Tabs

 

Bad Seamstress Blues Chords & Tabs

Cinderella Chords & Tabs

Version: 2 Type: Tab 0 ratings
1 star 2 stars 3 stars 4 stars 5 stars
comments

Bad Seamstress Blues Tab

Tuning:standard 
Tabbed by:a crazy teenage rock and roll fan
Artist:cinderella
Song:bad seamstress blues
Album:long cold winter
Year:1988

this song is played with slide guitar.
E|-------------------------------------|
B|-3/8===========3/5-------------------|
G|-------------------5\0-5/7\3\0=======|
D|-------------------------------------|
A|-------------------------------------|
E|-------------------------------------|

E|----------------------------------|
B|-3/8========3/5-------------------|
G|----------------5\0-5/7\3\0=======|
D|----------------------------------|
A|----------------------------------|
E|----------------------------------|
[ Tab from: http://www.guitartabs.cc/tabs/c/cinderella/bad_seamstress_blues_tab_ver_2.html ]
E|------------------------------------------|
B|------------------------------------------|
G|---------------7----------5/7\5-0-7/8\7\0-|
D|-0-2/3-0-2/3/7---0========----------------|
A|------------------------------------------|
E|------------------------------------------|

E|----------------------------------|
B|----------------------------------|
G|-8\7\5-0/3/5/8-7\5\3\0/3/5========|
D|----------------------------------|
A|----------------------------------|
E|----------------------------------|

E|-------------------------------------------|
B|-------------------------------------------|
G|-------------------------------------------|
D|-------------------------------------------|
A|-0-4/5-0-2/3-0-4/5-0---0-4/5-0-2/3-0-4/5-0-|
E|-------------------------------------------|
repeat this for the lyrics

lyrics:
lookin on back when
i was young
i tried to sing it
but my song had been sung
and now i 
i got no worries
i got noone to call my own

i said
but when i got
just a little bit older
all i got had come undone

lets go boys
Comments