Cinderella - Back Home Again Chords & Tabs

 

Back Home Again Chords & Tabs

Cinderella Chords & Tabs

Version: 1 Type: Tab 0 ratings
1 star 2 stars 3 stars 4 stars 5 stars
comments

Back Home Again Tab

   
Back home again
By cinderella
tabbed by: bighabit69@iamwasted.com

Standard tuning (E A D G B E) 


 Intro

Gtr I
  
                   PM----|     PM----|       PM----|
|-----------||-------------------------|-------------------|
|-----------||-------------------------|-------------------|
|-2---------||-------------------------|-------------2-----|
|-2------2--||-4-4---------4-4---------|-4-4---------2--2--|
|-0------2--||-4-4-4-4-4-4-4-4-4-4-4-4-|-4-4-4-4-4-4-0--2--|
|--------0--||-2-2-2-2-2-2-2-2-2-2-2-2-|-2-2-2-2-2-2----0--|


       PM-----|     PM----|
|---------------------------|
|---------------------------|
|---------------------------|
|-4-4-----------4-4---------|
|-4-4--4--4-4-4-4-4-4-4-4-4-|
|-2-2--2--2-2-2-2-2-2-2-2-2-|
|
| Gtr II
|---------------------------|
|-----[7]-------------------|
|-------------------2-------|
|---------------------4-----|
|---------------------------|
|---------------------------|


       PM-----|                                    PM-----|     PM----|
|-------------------------------------------|---------------------------|
|-------------------------------------------|---------------------------|
|---------------------2---------------------|---------------------------|
|-4-4-----------------2-------------2-------|-4-4-----------4-4---------|
|-4-4--4--4-4-4-------0-------------2-------|-4-4--4--4-4-4-4-4-4-4-4-4-|
|-2-2--2--2-2-2---------------------0-------|-2-2--2--2-2-2-2-2-2-2-2-2-|
|
|-------------------------------------------|---------------------------|
|-----[7]-------4b5==(4)-(4)r(4)-/2-4p2-----|-----[7]-------------------|
|---------------4b5==(4)-(4)r(4)-/2-4p2-----|-------------------2-------|
|---------------------------------------4p2-|---------------------4-----|
|-------------------------------------------|---------------------------|
|-------------------------------------------|---------------------------|


       PM-----|
|-------------------------------------------|
|-------------------------------------------|
|---------------------2---------------------|
|-4-4-----------------2-------------2-------|
|-4-4--4--4-4-4-------0-------------2-------|
|-2-2--2--2-2-2---------------------0-------|
|
|-------------------------------------------|
|-----[7]-------4b5==(4)-(4)r(4)-/2-4p2-----|
|---------------4b5==(4)-(4)r(4)-/2-4p2-----|
|---------------------------------------4p2-|
|-------------------------------------------|
|-------------------------------------------|


   1st and 2nd Verse
    PM----------------------------------------------|
||----------------------------------|-------------------------|
||o---------------------------------|-------------------------|
||----------------------------------|-----------------2-------|
||----------------------------------|-----------------2--2----|
||o-4-4-4-4-4-4-4-4-4-4-4-4-4-4-4-4-|-4-4-4-4-4-4-4-4-0--2----|
||--2-2-2-2-2-2-2-2-2-2-2-2-2-2-2-2-|-2-2-2-2-2-2-2-2----0----|
|
||----------------------------------|-------------------------|
||o---------------------------------|-------------------------|
||----------------------------------|-------------------------|
||----------------------------------|-------------------------|
||o---------------------------------|-------------------------|
||----------------------------------|-------------------------|


  PM----------------------------------------------|
|---------------------------------|-----------------------|
|---------------------------------|-----------------------|
|---------------------------------|-----------------2-----|
|---------------------------------|-----------------2--2--|
|-4-4-4-4-4-4-4-4-4-4-4-4-4-4-4-4-|-4-4-4-4-4-4-4-4-0--2--|
|-2-2-2-2-2-2-2-2-2-2-2-2-2-2-2-2-|-2-2-2-2-2-2-2-2----0--|


  PM----------------------------|
|----------------------------------|
|----------------------------------|
|----------------------------------|
|----------------------------------|
|-4-4-4-4-4-4-4-4-4-4-4-4-4-4-4-4--|
|-2-2-2-2-2-2-2-2-2-2-2-2-2-2-2-2--|


  PM------------|         PM-------------------------------
|-----------------------|---------------------------------|
|-----------------------|---------------------------------|
|-----------------2-----|---------------------------------|
|-----------------2--2--|---------------------------------|
|-4-4-4-4-4-4-4-4-0--2--|-4-4-4-4-4-4-4-4-4-4-4-4-4-4-4-4-|
|-2-2-2-2-2-2-2-2----0--|-2-2-2-2-2-2-2-2-2-2-2-2-2-2-2-2-|


 ---------------|
|-------------------------||
|-------------------------||
|-----------------2-------||
|-----------------2--2----||
|-4-4-4-4-4-4-4-4-0--2----||
|-2-2-2-2-2-2-2-2----0----||


 Chorus
                                   PM-----|     PM----|
|--------------|------------|---------------------------|
|--------------|------------|---------------------------|
|-7------(7)-6-|-4----2-----|---------------------------|
|-7------(7)-6-|-4----2--2--|-4-4-----------4-4---------|
|-5------(5)-4-|-2----0--2--|-4-4--4--4-4-4-4-4-4-4-4-4-|
|--------------|---------0--|-2-2--2--2-2-2-2-2-2-2-2-2-|
|
| Gtr II
|--------------|------------|---------------------------|
|--------------|------------|-----[7]-------------------|
|--------------|------------|-------------------2-------|
|--------------|------------|---------------------4-----|
|--------------|------------|---------------------------|
|--------------|------------|---------------------------|


       PM-----|
|-------------------------------------------|--------------|--------------|
|-------------------------------------------|--------------|--------------|
|---------------------2---------------------|-7------(7)-6-|-4----2-------|
|-4-4-----------------2-------------2-------|-7------(7)-6-|-4----2--2----|
|-4-4--4--4-4-4-------0-------------2-------|-5------(5)-4-|-2----0--2----|
|-2-2--2--2-2-2---------------------0-------|--------------|---------0----|
|
|-------------------------------------------|--------------|--------------|
|-----[7]-------4b5==(4)-(4)r(4)-/2-4p2-----|--------------|--------------|
|---------------4b5==(4)-(4)r(4)-/2-4p2-----|--------------|--------------|
|---------------------------------------4p2-|--------------|--------------|
|-------------------------------------------|--------------|--------------|
|-------------------------------------------|--------------|--------------|


       PM-----|     PM----|       PM----|              PM-----|     PM----|
|---------------------------|-------------------|----------------------------|
|---------------------------|-------------------|----------------------------|
|---------------------------|-------------2-----|----------------------------|
|-4-4-----------4-4---------|-4-4---------2--2--|-4-4-----------4-4----------|
|-4-4--4--4-4-4-4-4-4-4-4-4-|-4-4-4-4-4-4-0--2--|-4-4--4--4-4-4-4-4-4-4-4-4--|
|-2-2--2--2-2-2-2-2-2-2-2-2-|-2-2-2-2-2-2----0--|-2-2--2--2-2-2-2-2-2-2-2-2--|
|
|---------------------------|-------------------|----------------------------|
|-----[7]-------------------|-------------------|-----[7]--------------------|
|-------------------2-------|-------------------|-------------------2--------|
|---------------------4-----|-----4-------------|---------------------4------|
|---------------------------|-------------------|----------------------------|
|---------------------------|-------------------|----------------------------|


                       
       PM-----|              PM-----|     PM----|        PM-----|
|---------------------|---------------------------|-----------------------||
|---------------------|---------------------------|----------------------o||
|---------------2-----|---------------------------|---------------2-------||
|-4-4-----------2--2--|-4-4-----------4-4---------|-4-4-----------2--2----||
|-4-4--4--4-4-4-0--2--|-4-4--4--4-4-4-4-4-4-4-4-4-|-4-4--4--4-4-4-0--2---o||
|-2-2--2--2-2-2----0--|-2-2--2--2-2-2-2-2-2-2-2-2-|-2-2--2--2-2-2----0----||
|
|---------------------|---------------------------|-----------------------||
|-----[7]-------------|-----[7]-------------------|-----[7]--------------o||
|---------------------|-------------------2-------|-----------------------||
|---------------------|---------------------4-----|-----------------------||
|---------------------|---------------------------|----------------------o||
|---------------------|---------------------------|-----------------------||


  
       PM-----|     PM----|        PM-----|             PM----|     PM----|
|---------------------------|---------------------|--------------------------|
|---------------------------|---------------------|--------------------------|
|---------------------------|---------------2-----|--------------------------|
|-4-4-----------4-4---------|-4-4-----------2--2--|-4-4---------4-4----------|
|-4-4--4--4-4-4-4-4-4-4-4-4-|-4-4--4--4-4-4-0--2--|-4-4-4-4-4-4-4-4-4-4-4-4--|
|-2-2--2--2-2-2-2-2-2-2-2-2-|-2-2--2--2-2-2----0--|-2-2-2-2-2-2-2-2-2-2-2-2--|
|
|---------------------------|---------------------|--------------------------|
|-----[7]-------------------|-----[7]-------------|--------------------------|
|-------------------2-------|---------------------|-----------------2--------|
|---------------------4-----|---------------------|-----4-------------4------|
|---------------------------|---------------------|--------------------------|
|---------------------------|---------------------|--------------------------|


                        Guitar solo I
       PM-----|
|---------------------||------------------------------|-------------------|
|---------------------||------------------------------|-------------------|
|---------------2-----||------------------------------|-------------------|
|-4-4-----------2--2--||-4-4--------------------------|--4--4-------------|
|-4-4--4--4-4-4-0--2--||-4-4--------------------------|--4--2-------------|
|-2-2--2--2-2-2----0--||-2-2--------------------------|--2----------------|
|
|---------------------||------------------------------|-------------------|
|-----[7]-------------||------------------------------|-------------------|
|---------------------||-----4b6-(4)--2---------------|-------------------|
|---------------------||----------------4-2-----------|-------------------|
|---------------------||--------------------4-3-2-----|-------------------|
|---------------------||--------------------------5-2-|-(2)---2b3----(2)--|


|-------------------------------------------------------|
|-------------------------------------------------------|
|-------------------------------------------------------|
|-4-4---------------------------------------------------|
|-4-4---------------------------------------------------|
|-2-2---------------------------------------------------|
|
|-------------------------------------------------------|
|------16b17==(16)r(16)-14-16b17==(16)-(16)r(16)--------|
|------16b17==(16)r(16)-14-16b17==(16)-(16)r(16)-14-----|
|---------------------------------------------------16--|
|-------------------------------------------------------|
|-------------------------------------------------------|


                             Guitar solo II
|--------------------------||-----------------|
|--------------------------||-----------------|
|--------------------------||--4--------(4)-6-|
|-4-4----------------------||--4--------(4)-6-|
|-4-4----------------------||--2--------(2)-4-|
|-2-2----------------------||-----------------|
|
|--------------------------||-----------------|
|-----17b19==(17)r===(17)--||-12----14--15----|
|-----16b18==(16)r===(16)--||-----------------|
|--------------------------||-----------------|
|--------------------------||-----------------|
|--------------------------||-----------------|


|---------------|-----------------------||
|---------------|-----------------------||
|--7------------|--6------------5----4--||
|--7------------|--6------------5----4--||
|--5------------|--4------------3----2--||
|---------------|-----------------------||
|
|---------------|-------16b17-(16)--16--||
|-12----14--15--|-14--------------------||
|---------------|-----------------------||
|---------------|-----------------------||
|---------------|-----------------------||
|---------------|-----------------------||

[ Tab from: http://www.guitartabs.cc/tabs/c/cinderella/back_home_again_tab.html ]
 Guitar solo III
                       PM--------------|                         PM--------------|
|-------------------------------------------------------------------------------------|
|-------------------------------------------------------------------------------------|
|-------------------------------------------------------------------------------------|
|--4----------4------------------------------4----------4-----------------------------|
|--4----------4--------4------4---4----4-----4----------4--------4------4---4----4----|
|--2----------2--------2------2---2----2-----2----------2--------2------2---2----2----|
|
|------------14------------------14--------------------14------------------14---------|
|-17b19-(17)----17p14---------------17p==14-17b19-(17)----17p14---------------17p==14-|
|---------------------16b18-(16)--------------------------------16b18-(16)------------|
|-------------------------------------------------------------------------------------|
|-------------------------------------------------------------------------------------|
|-------------------------------------------------------------------------------------|


                       PM--------------|
|--------------------------------------------------------------------------|
|--------------------------------------------------------------------------|
|----------------------------------------------------2---------------------|
|--4----------4--------------------------------------2-----------------2---|
|--4----------4--------4----4-----4----4-------------0-----------------2---|
|--2----------2--------2----2-----2----2-------------------------------0---|
|
|------------17p14----14---------------------------------------------------|
|-17b19-(17)-------17----17p==14-17p14--------------14---------------------|
|----------------------------------------16b18-(16)----16p14-16p14----14\--|
|------------------------------------------------------------------16------|
|--------------------------------------------------------------------------|
|--------------------------------------------------------------------------|


                 PM---------------------|                                PM---------------------|
|----------------------------------------------------------------------------------------------------|
|----------------------------------------------------------------------------------------------------|
|----------------------------------------------------------------------------------------------------|
|--4------4------------------------------------4----------4------------------------------------------|
|--4------4------4--4---------4---------4------4----------4--------------4--4---------4---------4----|
|--2------2------2--2---------2---------2------2----------2--------------2--2---------2---------2----|
|
|----------------------------------------------------------------------------------------------------|
|----------------------------------------------------------------------------------------------------|
|-[5]-[6]---[5]-[6]---[5]h[6]---[5]h[6]---[5]h[6]-[5]h[6]---[5]h[6]-[5]h[6]---[5]h[6]---[5]h[6]------|
|----------------------------------------------------------------------------------------------------|
|----------------------------------------------------------------------------------------------------|
|----------------------------------------------------------------------------------------------------|


                                         Guitar solo IV
                     PM-----|
|--------------------------------------||-----------------|----------------|
|--------------------------------------||-----------------|----------------|
|-----------------------------2--------||--4--------(4)-6-|--7-------------|
|---4-----------4-------------2----2---||--4--------(4)-6-|--7-------------|
|---4-----------4----4--4-4-4-0----2---||--2--------(2)-4-|--5-------------|
|---2-----------2----2--2-2-2------0---||-----------------|----------------|
|
|--------------------------------------||-----------------|----------------|
|--------------------------------------||-12----14--15----|-12----14--15---|
|-([6])p[4]p[2]-4-2-(2)----------------||-----------------|----------------|
|-----------------------------2--------||-----------------|----------------|
|-------------------------------2-(2)--||-----------------|----------------|
|--------------------------------------||-----------------|----------------|
|
| Gtr III
|--------------------------------------||-------12--14----|-------12--14---|
|--------------------------------------||-15--------------|-15-------------|
|--------------------------------------||-----------------|----------------|
|--------------------------------------||-----------------|----------------|
|--------------------------------------||-----------------|----------------|
|--------------------------------------||-----------------|----------------|


|-----------------------||
|-----------------------||
|--6------------5----4--||
|--6------------5----4--||
|--4------------3----2--||
|-----------------------||
|
|-----------------------||
|-14--------------------||
|-------13b14-(13)--13--||
|-----------------------||
|-----------------------||
|-----------------------||
|
|-13----16b17-(16)--16--||
|-----------------------||
|-----------------------||
|-----------------------||
|-----------------------||
|-----------------------||


 Outro solo
                   PM-------------|                    PM-------------|
|--------------------------------------------------------------------------|
|--------------------------------------------------------------------------|
|--------------------------------------------------------------------------|
|--4-------4---------------------------4-------4---------------------------|
|--4-------4-------4----4----4----4----4-------4-------4----4----4----4----|
|--2-------2-------2----2----2----2----2-------2-------2----2----2----2----|
|
|       T       T         T         T       T       T         T         T
|-17p14p9-17p14p9-16p14p==9-17p14p==9-16p14p9-16p14p9-16p14p==9-16p14p==9--|
|--------------------------------------------------------------------------|
|--------------------------------------------------------------------------|
|--------------------------------------------------------------------------|
|--------------------------------------------------------------------------|
|--------------------------------------------------------------------------|
|
|--------------------------------------------------------------------------|
|--------------------------------------------------------------------------|
|--------------------------------------------------------------------------|
|--------------------------------------------------------------------------|
|--------------------------------------------------------------------------|
|--------------------------------------------------------------------------|


                   PM-------------|
|---------------------------------------------------------------------|
|---------------------------------------------------------------------|
|--------------------------------------2------------------------------|
|--4-------4---------------------------2---------------2--------------|
|--4-------4-------4----4----4----4----0---------------2--------------|
|--2-------2-------2----2----2----2--------------------0--------------|
|
|       T       T         T         T       T       T       T       T
|-19p14p9-19p14p9-19p14p==9-19p14p==9-17p14p9-16p14p9-17p14p9-16p14p9-|
|---------------------------------------------------------------------|
|---------------------------------------------------------------------|
|---------------------------------------------------------------------|
|---------------------------------------------------------------------|
|---------------------------------------------------------------------|


               PM--------|                       PM------|
|------------------------------------------------------------|
|------------------------------------------------------------|
|------------------------------------------------------------|
|---------4--4-----------------4-----4-----------------------|
|---------4--4-4-4--4----4-----4-----4-----------4--4--4--4--|
|---------2--2-2-2--2----2-----2-----2-----------2--2--2--2--|
|
|------------------14----------------------------------------|
|-17b19-(17)----------17p==14-17-14-17-14----14--------------|
|-----------------------------------------17----17-16-14-16--|
|------------------------------------------------------------|
|------------------------------------------------------------|
|------------------------------------------------------------|


                                              H
                 PM----------|
|---------------------------------------------|
|---------------------------------------------|
|-------------------------------2-------------|
|---4---4-----------------------2--------2----|
|---4---4--------4-4----4----4--0--------2----|
|---2---2--------2-2----2----2-----------0----|
|
|---------------------------------------------|
|---------------------------------------------|
|-(16)-14h16p14-13---14---13---14-13----------|
|------------------------------------14-14s18-|
|---------------------------------------------|
|---------------------------------------------|


 .H
               PM------|               PM------|
|--------------------------------------------------|
|--------------------------------------------------|
|--------------------------------------------------|
|--4-----4-----------------4-----4-----------------|
|--4-----4-----4--4--4--4--4-----4-----4--4--4--4--|
|--2-----2-----2--2--2--2--2-----2-----2--2--2--2--|
|
|--------------------------------------------------|
|----------------19----------------19--------------|
|-18s16----16s18----18s16----16S18----18S16----16s=|
|-------14----------------14----------------14-----|
|--------------------------------------------------|
|--------------------------------------------------|


               PM-----|
|--------------------------------------|
|--------------------------------------|
|--------------------------2-----------|
|--4-----4-----------------2-----2-----|
|--4-----4-----4--4-4--4---0-----2-----|
|--2-----2-----2--2-2--2---------0-----|
|
|--------------------------------------|
|----19-------------------22-----------|
|-18----18s16----16s==21-(21)--(21)s18-|
|-------------14-----------------------|
|--------------------------------------|
|--------------------------------------|


               PM------|               PM------|
|--------------------------------------------------|
|--------------------------------------------------|
|--------------------------------------------------|
|--4-----4-----------------4-----4-----------------|
|--4-----4-----4--4--4--4--4-----4-----4--4--4--4--|
|--2-----2-----2--2--2--2--2-----2-----2--2--2--2--|
|
|--------------------------------------------------|
|----------------19----------------19--------------|
|-18s16----16s18----18s16----16S18----18S16----16s=|
|-------14----------------14----------------14-----|
|--------------------------------------------------|
|--------------------------------------------------|


               PM------|
|-------------------------------------------------||
|-------------------------------------------------||
|--------------------------2----------------------||
|--4-----4-----------------2-----------2----------||
|--4-----4-----4--4--4--4--0-----------2----------||
|--2-----2-----2--2--2--2--------------0----------||
|
|-------------------------------------------------||
|----19----------------19----------------19-------||
|-18----18s16----16s18----18s16----16s18----18s16-||
|-------------14----------------14----------------||
|-------------------------------------------------||
|-------------------------------------------------||


               PM------|               PM------|
|-------------------------------------------------|
|-------------------------------------------------|
|-------------------------------------------------|
|--4-----4-----------------4-----4----------------|
|--------4-----4--4--4--4--4-----4-----4--4--4--4-|
|--4-----2-----2--2--2--2--2-----2-----2--2--2--2-|
|
|-------------------------------------------------|
|----------19----------------19----------------19-|
|----16s18----18s16----16s18----18s16----16s18----|
|-14----------------14----------------14----------|
|-------------------------------------------------|
|-------------------------------------------------|


               PM------|
|-------------------------------------------------|
|-------------------------------------------------|
|--------------------------2----------------------|
|--4-----4-----------------2-----------2----------|
|--4-----4-----4--4--4--4--0-----------2----------|
|--2-----2-----2--2--2--2--------------0----------|
|
|-------------------------------------------------|
|----------------19----------------19-------------|
|-18s16----16s18----18s16----16s18----18s16----16-|
|-------14----------------14----------------14----|
|-------------------------------------------------|
|-------------------------------------------------|


                                                     4x
||---------------------------------------------------||
||o-------------------------------------------------o||
||---------------------------------------------------||
||---4-----4-----------------4-----4-----------------||
||o--4-----4-----------------4-----4----------------o||
||---2-----2-----------------2-----2-----------------||
|
|                                                    4x
||---------------------------------------------------||
||o----------19----------------19----------------19-o||
||-----16s18----18s16----16s18----18s16----16s18-----||
||--14----------------14----------------14-----------||
||o-------------------------------------------------o||
||---------------------------------------------------||  - natural harmonic
[n]  - artificial harmonic
n(n) - tapped harmonic
 ~   - vibrato
 T   - tap
 TP  - trem. picking
 PM  - palm muting
\n/  - tremolo bar dip; n = amount to dip
 \n  - tremolo bar down
 n/  - tremolo bar up
/n\  - tremolo bar inverted dip
 =   - hold bend; also acts as connecting device for hammers/pulls
Comments