Cinderella - Back Home Again Chords & Tabs

 

Back Home Again Chords & Tabs

Cinderella Chords & Tabs

Version: 1 Type: Bass Tab 0 ratings
1 star 2 stars 3 stars 4 stars 5 stars
comments

Back Home Again Bass Tab

#-----------------------------------------------------------------------------#
#-- File created with Instab - http://www.pconline.com/~smcarey/instab.html --#
#-----------------------------------------------------------------------------#

Author/Artist: cinderella
Title: back home again
Album: night songs

------------------------------------------------------------------------------
------------------------------------------------------------------------------
------------------------------------------------------------------------------
---22-0000-22-0000-22-0000-2-0------------------------------------------------
      opening                

[ Tab from: http://www.guitartabs.cc/tabs/c/cinderella/back_home_again_btab.html ]
------------------------------------------------------------------------------
------------------------------------------------------------------------------
------------------------------------------------------------------------------
------00000000------2-0-------------------------------------------------------
       then a bunch of 16 note open e with an occasianal f# thrown in)        


------------------------------------------------------------------------------
------------------------------------------------------------------------------
--2--245--5-4-2---------------------------------------------------------------
-----------------2-0--220000220000220000-2-0----------------------------------
    thats pretty much it.  fun song to play        

Comments