Cinder - Tomorrow Chords & Tabs

 

Tomorrow Chords & Tabs

Cinder Chords & Tabs

Version: 1 Type: Tab

Tomorrow Tab

verse x3
e(-------------------------------)
b(-------3------3------3------32-)
g(----44-----44-----22-----22----)
d(-------------------------------)
a(--2------2-------------0-------)
E(----------------3--------------)

pre-chorus x3
e(-------------------)
b(-------------------)
g(--4444444422222222-)
d(--4444444422222222-)
a(--2222222200000000-)
E(-------------------)
[ Tab from: http://www.guitartabs.cc/tabs/c/cinder/tomorrow_tab.html ]
chorus x2                              lead x12
e(----------------------------------)(-----------)
b(----------------------------------)(--9b10r9p8-)
g(----------------------------------)(-----------)
d(--99-9999-77-7777-55-5555-77-7777-)(-----------)
a(--99-9999-77-7777-55-5555-77-7777-)(-----------)
D(--77-7777-55-5555-33-3333-55-5555-)(-----------)

breakdown
e(-------------------)
b(-------------------)
g(-------------------)
d(--5555555577777777-)
a(--5555555577777777-)
E(--3333333355555555-)