Cinder - Soul Creation Chords & Tabs

 

Soul Creation Chords & Tabs

Cinder Chords & Tabs

Version: 1 Type: Tab 0 ratings
1 star 2 stars 3 stars 4 stars 5 stars
comments

Soul Creation Tab

New Artist
Bands Website - http://www.cinderband.com

Cinder - Soul Creation
Tabbed By - Travis Studer

Drop to a (C) Tuning

s = slide, X = palm mute, ~ = let ring, h = hammer

Intro
|------------------------------------------------------
|------------------------------------------------------
|------------------------------------------------------
|------------------------------------------------------
|------------------------------------------------------
|--0-0--0-3-2--0-0-0--0-3-2--0-0--0-3-2--0-0-0--3s12s1--

3s12s1 = slide from 3 to 12 and then back down to 1

[ Tab from: http://www.guitartabs.cc/tabs/c/cinder/soul_creation_tab.html ]
|--------------------------------------------------------------
|--------------------------------------------------------------
|--------------------------------------------------------------
|--0-0--0-3-2--0-0-0--0-3-2--X-X-0-0--0-3-2--0-0--0-3-2--X-X---
|--0-0--0-3-2--0-0-0--0-3-2--X-X-0-0--0-3-2--0-0--0-3-2--X-X---
|--0-0--0-3-2--0-0-0--0-3-2--X-X-0-0--0-3-2--0-0--0-3-2--X-X---



Cant bite the hand thats gonna feed me.....
|---------------------------------
|---------------------------------
|---------------------------------Play Twice
|--0-0--0-0-0--0-0--0-0-0-2h3~ ---
|--0-0--0-0-0--0-0--0-0-0-2h3~ ---
|--0-0--0-0-0--0-0--0-0-0-2h3~ --- 


Chours

|-----------------------------------------------------------
|-----------------------------------------------------------
|-----------------------------------------------------------
|--0-0-0--0-0-0--0-0-0--0-0-0--0-3-5--0-3-5--0-2-3--0-2-3---
|--0-0-0--0-0-0--0-0-0--0-0-0--0-3-5--0-3-5--0-2-3--0-2-3---
|--0-0-0--0-0-0--0-0-0--0-0-0--0-3-5--0-3-5--0-2-3--0-2-3---

End Chours With

|------------------------------------
|------------------------------------
|------------------------------------
|--0-2-2-2-2-2-2-2-3-3-3-3-2-2-2-2---
|--0-2-2-2-2-2-2-2-3-3-3-3-2-2-2-2---
|--0-2-2-2-2-2-2-2-3-3-3-3-2-2-2-2---
Comments