Cinder - Crutch Chords & Tabs

 

Crutch Chords & Tabs

Cinder Chords & Tabs

Version: 1 Type: Tab

Crutch Tab

into
e(-------------------)
b(-------------------)
g(-------------------)
d(-------------------)
a(--8-888-888-88-8-8-)
D(-------------------)
  pm. ... ... .. . . 

intro and verse(lead)
e(--11b-)
b(------)
g(------)
d(------)
a(------)
D(------)

verse
e(------------------)
b(------------------)
g(------------------)
d(--3-4-6-0h1-2/3-3-)
a(--3-4-6-0h1-2/3-3-)
D(--3-4-6-0h1-2/3-3-)
[ Tab from: http://www.guitartabs.cc/tabs/c/cinder/crutch_tab.html ]
verse continued
e(------------------)
b(------------------)
g(------------------)
d(--3-4-6-0h1-2/3-3-)
a(--3-4-6-0h1-2/3-3-)
D(--3-4-6-0h1-2/3-3-)
  pm. . . ... ... .

pre/post-chorus
e(---------------------)
b(---------------------)
g(----11---------------)
d(--3-11-4444-3-6-4444-)
a(--3--9-4444-3-6-4444-)
D(--3----4444-3-6-4444-)

chorus                       chorus(lead)
e(--------------------------)(--------)
b(--------------------------)(--------)
g(--------------------3-333-)(--7-8-7-)
d(--5-3-2-0-xxx-5-3-2-3-333-)(--------)
a(--5-3-2-0-xxx-5-3-2-1-111-)(--------)
D(--5-3-2-0-xxx-5-3-2-------)(--------)