Cigar - No More Waiting Chords & Tabs

 

No More Waiting Chords & Tabs

Cigar Chords & Tabs

Version: 1 Type: Bass Tab 0 ratings
1 star 2 stars 3 stars 4 stars 5 stars
comments

No More Waiting Bass Tab

   
G|--------------------------------------------------------------------------|
D|-----------------------------------7h9 ~ -7h97-7h97-7h97-7h97-------------|
A|77-777-777-775-------(guitar riff)------------9----9----9----957 * -------|
E|----------------7\--------------------------------------------------------|

G|-------------------------------------------------------5h7-------------------|
D|-------------------77-797-7-----------------------77-77---97-----------------|
A|----------------55-------9-975-----------------55-----------975--------------|
E|77-777-777-755-5--------------577-777-777-755-5----------------577-777-777---|

G|--------7h99-97-7---------------------------------------------------------|
D|---------------9-97----------------------------------------5-------5------|
A|-----55------------975-----------------55-544-422-200-0-------------------|
E|755-5------------------77-777-777-755-5----------------33-3-3-333-3-3-355-|

G|--------------------------------------------------------------------------|
D|-7--7h97------------------------------------------------------------------|
A|--------98754----------------------55-544-477-777-777-775-----------------|
E|5-5----------577-77-77-55-55-22-22------------------------77-777-777-755--|

G|----------7---------------------------------------------------------7h99--|
D|----77-7h9-97--7--------------------77-797-7------------------------------|
A|-55----------97------------------55-------9-9875-----------------55-------|
E|5----------------77-777-777-755-5----------------77-777-777-755-5---------|
[ Tab from: http://www.guitartabs.cc/tabs/c/cigar/no_more_waiting_btab.html ]
G|97-7----------------------------------------------------------------------|
D|--9-97----------------------------------------5-------5-------7--7h97-----|
A|------987----------------55-544-422-200-0---------------------------98754-|
E|----------77-777-777-755-5----------------33-3-3-333-3-3-355-5-5----------|5|

G|----------------------7---------------------------------------------------|
D|----9------7------4------7-----(repeat this line 3 times)-----------------|
A|---------------------5--4-------------------------------------------------|
E|77-7---55-5---22-2--------------------------------------------------------|
                                                   RIFF A
G|------------------------------------|---------------------------------------|
D|-----------------------7h97---------|--------------7-7h97-77777h9-7---------|
A|----------------------------987-----|--55577888899-9----9----------9-7------|
E|33-3333-33333335-5-555-------(10)9--|777-----------------------------(10)9--|

G|---------------------------------------------------------------------------|
D|-5h75--7h97-9h(11)9-(11)(12)(12)(11)977h97-7-777h97------------------555---|
A|------7------------------------------------9-9------97-(repeat riff A)-----|
E|33-------------------------------------------------------------------------|

G|--------------------------------------------------------------------7------|
D|5h7 5-5-----------7h9-7------------------------------9-----7-----4-----7---|
A|-----7-75--5-55555------987----------------5--4--------------------5--4----|
E|--------75---------------(10)97 ~ --2--2--------77-7--55-5--22-2-------77--|

G|------------------7-------------------------------------------------------|
D|-97------7-----4-----7----------------------------------------------------|
A|---97------------5--4--77-777-777-775--------999995-----------------------|
E|7----55-5--22-2-----------------------22-222--------7\0-------------------|
Comments