Cigar - Mr Hurtado Chords & Tabs

 

Mr Hurtado Chords & Tabs

Cigar Chords & Tabs

Version: 1 Type: Bass Tab 0 ratings
1 star 2 stars 3 stars 4 stars 5 stars
comments

Mr Hurtado Bass Tab

   
Name: RODRIGO VILLANUEVA - LIMA, PERU

Intro (00:04)
G/--8-8-8h10-10h12-10-8h10h8-8-7--|
D/--------------------------------|
A/--6-----------------------------|
E/--------------------------------|

(00:09)
G/-----------------------------------------------------7H8-8-8-7-|
D/---------5-5-6-5-----8-6-5---------------5-5-6-5---------------| 2x
A/-6-6-8-8-------------------8-6------8-8------------------------|
E/-----------------4-4-----------8-8----------------6-6----------|

G/-----------------------------|
D/-----------------------------|
A/-----------------------------|
E/-4-4-0-4-4-0-4-4-3-4-4-4-4-4-|

Verse (00:22)
G/---------------------------------------0-----0----------------------------|
D/--------------------------------3-3-3----3-1---3-1--------6-6-6-6-6-6-6-6-|
A/-6-6-6-6-6-6-6-6-6-8-6----------------------------------------------------|
E/-----------------------81-1-1----------------------4-4-4-----------------|

G/-----------------------------------|
D/-----------8-8-8-10-8---8----------|
A/----------------------11-11-10-6-6-|
E/-6-6-6-6-6-6-----------------------|

G/--------------------------------------0-----0--------------------|
D/--------------------------------3-3-3---3-1---3-1----------------|
A/-6-6-6-6-6-6-6-6-6-8-6-------------------------------------------|
E/-----------------------8-1-1-1-----------------------4***--6***--|

G/------------------------------------------------------|
D/--------------------------5-5-5-6-6-6-8-8-8-6-5-------|
A/-6-6-68-8-8-6-6-6-8-8-8------------------------8-6-6-|
E/------------------------------------------------------|

G/------------------------------------------------------5--8--10--|
D/---------------------------------5-5-5-5-6-6-6-8-8-8------------|
A/-6-6-6-6-8-8-8-8-6-6-6-6-8-8-8-8-----------------------7--6-8--|
E/----------------------------------------------------------------|

Verse 2 (00:53)
[ Tab from: http://www.guitartabs.cc/tabs/c/cigar/mr_hurtado_btab.html ]
G/---------------------------------------------------|
D/-------------------6-6-6---------10-10-------------| 3x
A/-6-6-6-6-6-6---------------------------------------|
E/-------------4-4-4-------8-8-8-8-------6-6-6-6-6-6-|

G/------------------------------------------------------------5--------------|
D/--------------------------------------------------------------8-6-5-6-5----|
A/-6-6-6-6-6-6------------------------------------------------------------8--|
E/-------------4-4-4-4-4-4---8-8-8-8-8-8---6-6-6-6-6-6---4***----------------|


Verse (01:15)
G/---------------------------------------0-----0----------------------------|
D/--------------------------------3-3-3----3-1---3-1--------6-6-6-6-6-6-6-6-|
A/-6-6-6-6-6-6-6-6-6-8-6----------------------------------------------------|
E/-----------------------81-1-1----------------------4-4-4-----------------|

G/-----------------------------------|
D/-----------8-8-8-10-8---8----------|
A/----------------------11-11-10-6-6-|
E/-6-6-6-6-6-6-----------------------|

G/--------------------------------------0-----0--------------------|
D/--------------------------------3-3-3---3-1---3-1----------------|
A/-6-6-6-6-6-6-6-6-6-8-6-------------------------------------------|
E/-----------------------8-1-1-1-----------------------4***--6***--|

G/------------------------------------------------------|
D/--------------------------5-5-5-6-6-6-8-8-8-6-5-------|
A/-6-6-68-8-8-6-6-6-8-8-8------------------------8-6-6-|
E/------------------------------------------------------|

Interlude (01:38)
G/-----------------------------------------|
D/---------5-5-5-5-6-6-6-6-8-8-8-8-8-6-5---|
A/-6-8-6---------------------------------|
E/-----------------------------------------|

G/--------------------------------------------------------------------|
D/---------------------------------5-5-5-5-6-6-6-6-8-8-8-8-8-6-5------|
A/-6-6-6-6-8-8-88-6-6-6-6-8-8-8-8-------------------------------8-6--| 4x
E/--------------------------------------------------------------------|

G/-7-8-10---7-8---|
D/--------------6-|
A/-5-6-8----5-6---|
E/--------------4-|

Outro (02:11)

G/----------------------------|
D/----------------------------|
A/-4****-------------------6--|
E/-------1****-4****-6***-----|
Comments