Cigar - Blind Chords & Tabs

 

Blind Chords & Tabs

Cigar Chords & Tabs

Version: 1 Type: Tab 0 ratings
1 star 2 stars 3 stars 4 stars 5 stars
comments

Blind Tab

   
Song: The blind
Artist: Cigar

  ~ = Let ring
  p = Pull off
  h = Hammer on
 PM = Palm Mute
  / = Slide
 b =  Bend up

Intro

Guitar A
e|-----------------------------------------------------------------------|
B|-----------------------------------------------------------------------|
G|-----------------------------------------------------------------------|
D|-7-7-7-7-----------------7-77-7-7---------------3-33-3-3---------------|
A|-7-7-7-7------3p0--------7-77-7-7------3p0------3-33-3-3------3p0------|
E|-5-5-5-5-0h3h5---3h5-0---5-55-5-5-0h3h5---3h5-0-1-11-1-1-0h3h5---3h5-0-|
          |.....PM......|          |......PM.....|        |......PM.....|

e|-----------------------------|
B|-----------------------------|
G|-----------------------------|
D|-5-55-5-5--------------------|
A|-5-55-5-5-----3p0-3h5--------|
E|-3-33-3-3-0h3h5--------------|
           |......PM.....|

Repeat all intro: Both guitars


Verse 1

e|-----------------------------------------------------------------------|
B|-----------------------------------------------------------------------|
G|-----------------------------------------------------------------------|
D|-77-777-777-777-777-777-777-777-7-33-333-333-333-3-55-555-555-555-5----|
A|-77-777-777-777-777-777-777-777-7-33-333-333-333-3-55-555-555-555-5----|
E|-55-555-555-555-555-555-555-555-5-11-111-111-111-1-33-333-333-333-3----|

Palm Mute this part G|--.......7-9|
                    D|-7.......x-x| (bass riff)
     	            A|-7.......5-7|
                    E|-5.......---|

...and continue with
e|------------------------------------------------|
B|------------------------------------------------|
G|------------------------------------------------|
D|-33-333----------------55-555-------------------|
A|-33-333-/3-2-0-3-2-0---55-555-/3-2-0-2-3-5-3----|
E|-11-111------3------3--33-333-------------------|


e|------------------------------------|-----------------------------------------|
B|------------------------------------|-----------------------------------------|
G|------------------------------------|---------------5---------------3p2-3p2---|
D|-77-777-7-55-555-5-33-333-3-55-555-5|-77-777-7-55-5-5-5-33-333-3-555----------|
A|-77-777-7-55-555-5-33-333-3-55-555-5|-77-777-7-55-5-3-5-33-333-3-555----------|
E|-55-555-5-33-333-3-11-111-1-33-333-3|-55-555-5-33-3---3-11-111-1-333----------|


Play Intro

e|-----------------------------------------------------------------------|
B|-----------------------------------------------------------------------|
G|-----------------------------------------------------------------------|
D|-7-7-7-7-----------------7-77-7-7---------------3-33-3-3---------------|
A|-7-7-7-7------3p0--------7-77-7-7------3p0------3-33-3-3------3p0------|
E|-5-5-5-5-0h3h5---3h5-0---5-55-5-5-0h3h5---3h5-0-1-11-1-1-0h3h5---3h5-0-|
          |.....PM......|          |......PM.....|        |......PM.....|

e|-----------------------------|
B|-----------------------------|
G|-----------------------------|
D|-5-55-5-5--------------------|
A|-5-55-5-5-----3p0-3h5--------|
E|-3-33-3-3-0h3h5--------------|
           |......PM.....|

Play Verse 1

e|-----------------------------------------------------------------------|
B|-----------------------------------------------------------------------|
G|-----------------------------------------------------------------------|
D|-77-777-777-777-777-777-777-777-7-33-333-333-333-3-55-555-555-555-5----|
A|-77-777-777-777-777-777-777-777-7-33-333-333-333-3-55-555-555-555-5----|
E|-55-555-555-555-555-555-555-555-5-11-111-111-111-1-33-333-333-333-3----|

Palm Mute this part G|--.......7-9|
                    D|-7.......x-x| (bass riff)
     	            A|-7.......5-7|
                    E|-5.......---|

...and continue with
e|------------------------------------------------|
B|------------------------------------------------|
G|------------------------------------------------|
D|-33-333----------------55-555-------------------|
A|-33-333-/3-2-0-3-2-0---55-555-/3-2-0-2-3-5-3----|
E|-11-111------3------3--33-333-------------------|


e|------------------------------------|-----------------------------------------|
B|------------------------------------|-----------------------------------------|
G|------------------------------------|---------------5---------------3p2-3p2---|
D|-77-777-7-55-555-5-33-333-3-55-555-5|-77-777-7-55-5-5-5-33-333-3-555----------|
A|-77-777-7-55-555-5-33-333-3-55-555-5|-77-777-7-55-5-3-5-33-333-3-555----------|
E|-55-555-5-33-333-3-11-111-1-33-333-3|-55-555-5-33-3---3-11-111-1-333----------|

e|------------------------------------|-------------|
B|------------------------------------|-------------|
G|------------------------------------|-------------|
D|-77-777-7-55-555-5-33-333-3-55-555-5|-7~-5~-3~-5~-|
A|-77-777-7-55-555-5-33-333-3-55-555-5|-7~-5~-3~-5~-|
E|-55-555-5-33-333-3-11-111-1-33-333-3|-5~-3~-1~-3~-|

[ Tab from: http://www.guitartabs.cc/tabs/c/cigar/blind_tab.html ]
e|----------------------------------|
B|----------------------------------|
G|--------9-10101010----------------|
D|-777-10-9-10101010--777-10-9-5----|
A|-777-10-7--8-8-8-8--777-10-9-5----|
E|-555-8--------------555--8--7-3---|


e|--------------------------------------------------|
B|--------------------------------------------------|
G|--------------------------------------------------|  
D|-77-777-7-555-333-55-555-555-5-333----Play 4 times|
A|-77-777-7-555-333-55-555-555-5-333----------------|
E|-55-555-5-333-111-33-333-333-3-111----------------|



Play Intro

e|-----------------------------------------------------------------------|
B|-----------------------------------------------------------------------|
G|-----------------------------------------------------------------------|
D|-7-7-7-7-----------------7-77-7-7---------------3-33-3-3---------------|
A|-7-7-7-7------3p0--------7-77-7-7------3p0------3-33-3-3------3p0------|
E|-5-5-5-5-0h3h5---3h5-0---5-55-5-5-0h3h5---3h5-0-1-11-1-1-0h3h5---3h5-0-|
          |.....PM......|          |......PM.....|        |......PM.....|

e|-----------------------------|
B|-----------------------------|
G|-----------------------------|
D|-5-55-5-5--------------------|
A|-5-55-5-5-----3p0-3h5--------|
E|-3-33-3-3-0h3h5--------------|
           |......PM.....|


Bridge

e|----------------------|
B|----------------------|
G|-/12~--12-14-16-17----|
D|---x----x--x--x--x----|
A|-/10~--10-12-14-15----|
E|----------------------|


e|-----------------------------------------------------------------------------------|
B|-----------------------------------------------------------------------------------|
G|-----------------------------------------------------------------------------------|
D|-77-777-777-777-7-1010-101010-101010-101010-10-33-333-333-333-3-55-555-555-555-5---|
A|-77-777-777-777-7-1010-101010-101010-101010-10-33-333-333-333-3-55-555-555-555-5---|
E|-55-555-555-555-5--8-8--8-8-8--8-8-8--8-8-8--8-11-111-111-111-1-33-333-333-333-3---|

e|---------------------------------------------------------|
B|---------------------------------------------------------|
G|---------------------------------------------------------|
D|-7-777-7-777-5-555-5-555-3-333-3-333-55-555-555-555-5----|
A|-7-777-7-777-5-555-5-555-3-333-3-333-55-555-555-555-5----|
E|-5-555-5-555-3-333-3-333-1-111-1-111-33-333-333-333-3----|


Solo

 * = Play each note 11 times
e|---------------------------------------------------|
B|---------------------------------------------------|
G|-9*--7*--5*--4/5--7*--/9*--7/9--12*--10/12--14*----|
D|-x---x---x---x/x--x---/x---x/x--x----x-/x---x------|
A|-7*--5*--3*--2/3--5*--/7*--5/7--10*--8-/10--12*----|
E|---------------------------------------------------|

e|-------------------------------------------------------------------------|
B|-------------------------------------------------------------------------|
G|----------------7-----------7-9-----------------7h9-7--7h9-7--7--7-99----|
D|-10-9-77-9-10-9---10-9-10-9-----101010-9h10-10-------10-----10-10--------|
A|-------------------------------------------------------------------------|
E|-------------------------------------------------------------------------|

e|-------------------------------10b------------10b---------8--------------------------------------|
B|/10-1010-101010-13-10-10-13p10----13-10-13p10-----8h10-10---10-8-10-10-8-6-8-6-5-6-5-3-5-5-------|
G|-------------------------------------------------------------------------------------------5\----|
D|-------------------------------------------------------------------------------------------------|
A|-------------------------------------------------------------------------------------------------|
E|-------------------------------------------------------------------------------------------------|
End solo


e|------------------------------------|
B|------------------------------------|
G|------------------------------------|
D|-7-77777-5-55555-3-33333-5-55555----|
A|-7-77777-5-55555-3-33333-5-55555----|
E|-5-55555-3-33333-1-11111-3-33333----|
    |.PM..| |.PM..| |.PM..| |.PM..|


e|---------------------------------------|
B|---------------------------------------|
G----------------5-----------------------|
D|-77-777-7-55-5-5-5-5-33-333-3-555-5----|
A|-77-777-7-55-5-3-3-5-33-333-3-555-5----|
E|-55-555-5-33-3---3-3-11-111-1-333-3----|


Ending

e|-----------------------------------------------------------------------|
B|-----------------------------------------------------------------------|
G|-----------------------------------------------------------------------|
D|-7-7-7-7-----------------7-77-7-7---------------3-33-3-3---------------|
A|-7-7-7-7------3p0--------7-77-7-7------3p0------3-33-3-3------3p0------|
E|-5-5-5-5-0h3h5---3h5-0---5-55-5-5-0h3h5---3h5-0-1-11-1-1-0h3h5---3h5-0-|
          |.....PM......|          |......PM.....|        |......PM.....|

e|-----------------------------|
B|-----------------------------|
G|-----------------------------|
D|-5-55-5-5---------------7----|
A|-5-55-5-5-----3p0-3h5---7----|
E|-3-33-3-3-0h3h5---------5----|
           |......PM.....|



........And that's all......

                            Tabbed By Ban
Comments