Cicada - Blake Song Chords & Tabs

 

Blake Song Chords & Tabs

Cicada Chords & Tabs

Version: 1 Type: Tab 0 ratings
1 star 2 stars 3 stars 4 stars 5 stars
comments

Blake Song Tab

Band: Cicada
Song: Blake Song
Tuning: Standard

This song was dedicated to Blake Weisman

|-----------------------------------------------------------------
|-----------------------------------------------------------------
|-----------------------------------------------------------------
|---------------------------------6-6-6-6-6-6-6-6-8-8-8-8-8-8-8-8-
|-6-6-6-6-6-6-6-6-3-3-3-3-3-3-3-3-4-4-4-4-4-4-4-4-6-6-6-6-6-6-6-6-
|-4-4-4-4-4-4-4-4-1-1-1-1-1-1-1-1---------------------------------
blake is gay... (main riff)(chourus and pm in verse Rhythm guitar)
[ Tab from: http://www.guitartabs.cc/tabs/c/cicada/blake_song_tab.html ]
|-----------------------------------------------------------------
|-----------------------------------------------------------------
|-----------------------------------------------------------------
|-------------------------6---6-----6-8---8-----8-8~-8~-8~-8~-----
|-6---6-----6-3---3-----3---4---4-4-----6---6-6-------------------
|---4---4-4-----1---1-1-------------------------------------------
blake is gay... (chourus) (lead guitar)

|---------------------------------------------t18-16-13-----------
|-------------------------------16----------------------t18-16-13-
|----------------------------------15b16r15-13--------------------
|---------------------t18-15-13-----------------------------------
|-----------t18-15-13---------------------------------------------
|-t18-16-13-------------------------------------------------------
(solo)(each set 4 times)

|-------------------------------------------------13-16-18-20-22b24
|-------------------------------------------13-16------------------
|-------------------------------------13-15------------------------
|-15b16r15b16r15----------------13-15------------------------------
|----------------13-------13-15------------------------------------
|-------------------13-16------------------------------------------
                                                           end solo
Comments