Church Of Noise - Therapy Chords & Tabs

 

Therapy Chords & Tabs

Church Of Noise Chords & Tabs

Version: 1 Type: Tab 0 ratings
1 star 2 stars 3 stars 4 stars 5 stars
comments

Therapy Tab

   
#----------------------------------PLEASE NOTE--------------------------------#
#This file is the author's own work and represents their interpretation of the#
#song. You may only use this file for private study, scholarship, or research.#
#-----------------------------------------------------------------------------#

From: ryan@dna1.dnet.co.uk (Ryan)
Subject: Submission- Therapy? Church Of Noise
Date: Sat, 28 Feb 1998 09:52:47 -0000

This is Therapy- Church of Noise. ( from their forthcoming album
Semi-detached )
This song will be released on the 2nd of March and I have tabbed it from a
live performance.

Ryan

ryan@finman.dnet.co.uk

NOTE : Open this in Windows Write for best results!!!

This is transcribed from the live performance on TFI Friday ( 28/2/98) and
represents my interpretation only. This is strictly for educational purposes
and all copyright remains with Therapy?

-----Church of Noise------

^=bend
x=palm muting
/=slide

Riff 1

-----------------------------------------------------------------|
-----------------------------------------------------------------|
-----------------------------------------------------------------|
----5----5-5----------5-5-5-5----------5----5-5----------5-5-5-5-|
----5----5-5----------5-5-5-5----------5----5-5----------5-5-5-5-|
----3----3-3--0--1////3-3-3-3--0--1////3----3-3--0--1////3-3-3-3-|
[ Tab from: http://www.guitartabs.cc/tabs/c/church_of_noise/therapy_tab.html ]
She knows... things that I don't know
She goes... places I don't go

Riff 2

A5 		   C5		  G5 ( at 10th fret on 5th string )
Welcome to the church of NOISE!!!

Repeat

Riff 3 ( Bridge back to verse )

-------|
-------|
-------|
5x5x5x5|
5x5x5x5|
3x3x3x3|

Repeat G5 chord with loads of muting.
7
Verse 2:

This goes... way beyond beliefs
Take this... far away from me

Chorus:

Middle Eight:

( I don't know the words but here are the chords )

G5 F#5  E5				A5			D5		G5
G5 F#5  E5				A5			D5   	( back to riff 1)

Solo:
First Andy Kearns goes:
( with loads of vibrato and noise )
--------------8-8^----------8-8^--------------------|
----------------------------------------------------|
------5--5^----------5-5^---------------------------|
----------------------------------------------------|
----------------------------------------------------|
----------------------------------------------------|

Then Martin McCarrick goes:
----------------------------------------------------|
--2///3///4///5///6///7///8///9///10///11///12------|
--2///3///4///5///6///7///8///9///10///11///12------|
--2///3///4///5///6///7///8///9///10///11///12------|
--2///3///4///5///6///7///8///9///10///11///12------|
----------------------------------------------------|

And then the chorus repeats to fade.

( Therapy? Church of Noise- transcribed by Ryan Shirlow -
  ryan at finman dot co dot uk )
Comments