Chumbawumba - Tubthumping Chords & Tabs

 

Tubthumping Chords & Tabs

Chumbawumba Chords & Tabs

Version: 1 Type: Tab

Tubthumping Tab

Chumbawumba - Tubthumping(solo)

E|-----------------------------17--|
B|--15-14-------15-14--------x-----|
G|--------14-11-------14---x-------|
D|-----------------------x---------|
A|---------------------------------|
E|---------------------------------|
           Sweep Picking --------|
[ Tab from: http://www.guitartabs.cc/tabs/c/chumbawumba/tubthumping_tab.html ]
E|-----------------------------------------------------------17--|
B|--15-15-------15-15-15-15-------15-15-15-15-------15-15------|
G|--------14-14--------------14-14--------------14-14------------|
D|---------------------------------------------------------------|
A|---------------------------------------------------------------|
E|---------------------------------------------------------------|

This is actually a sax solo, but it's a lot of fun to play it on the guitar this way.